Oops, an error
Loading. Please wait.

Hasta Que Te Conocí Tab

version 4
version 4

Whole song

Interactive

101 views 1 this week
no commentswrite comment
1 2 3 4 5
3 more votes to show rating
add to favorites
launch autoscroll
font size
0
reset
how to read this tab
guitar tuner
×
Best way to learn
"Hasta Que Te Conocí"
Autoscroll
slow
fast
+/-
esc
set tempo
stop
Hola este es mi segundo aporte espero que les guste,
cualquier error favor de decirlo gracias :)

intro:

E|----5---------5---------5---------5------3---/
B|-----------------------------------------3---/
G|--7---7/6---6---6/5---5---5/4---4---4----3---/
D|---------------------------------------------/
A|---------------------------------------------/
E|---------------------------------------------/

E|--3-5-6-5-3----------------------------/
B|------------6-6-5-5-3-3~5--------------/
G|---------------------------------------/
D|---------------------------------------/
A|---------------------------------------/
E|---------------------------------------/


Dm               Dm7    Dm
No sabia, de tristezas, ni de lagrimas
 Dm7     Dm     Dm7        Gm
Ni nada, que me hicieran llorar
C
Yo sabia de cariño, de ternura

Porque a mí desde pequeño
               F(riff 1)   A#
Eso me enseño mama,
              Gm(riff 2)  A
eso me enseño mama
                   Dm (riff 3)
eso y muchas cosas mas
          Gm (riff 4)A     Dm   Dm7  Dm
Yo jamás sufrí, yo jamás llore
           Gm (riff 5)A          Dm
Yo era muy feliz, yo vivía muy bien


riff 1

E|--------5-----6------------------------/
B|---------------------------------------/
G|----5/7---5/7--------------------------/
D|---------------------------------------/
A|---------------------------------------/
E|---------------------------------------/

riff 2

E|---------------------------------------/
B|---8-8/10--9---------------------------/
G|---7-7/11--10--------------------------/
D|---------------------------------------/
A|---------------------------------------/
E|---------------------------------------/

riff 3

E|-----------------------------------------------/
B|---------6---8---8/10-8------8-----------------/
G|---6/7-9---9---9--------10-9---10--------------/
D|-----------------------------------------------/
A|-----------------------------------------------/
E|-----------------------------------------------/

rifff 4

E|------------------------------------------------/
B|----------3-6-3-3/5/3---------------------------/
G|--------3-------------2-------------------------/
D|----3/5-----------------5-----------------------/
A|------------------------------------------------/
E|------------------------------------------------/

riff 5

E|----------------------13-13-13------------------/
B|-------10/11-10-10-11----------11/10------------/
G|-------------------------------------12---------/
D|------------------------------------------------/
A|------------------------------------------------/
E|------------------------------------------------/

(CORO)

                 Gm C
Hasta que te conocí
                 F   Dm
Vi la vida con dolor
              Gm      A#
No te miento fui feliz
                      A  Dm
Aunque con muy poco amor
                Gm    C
Y muy tarde comprendí
                 F    A#
Que no te debía amar
             Gm
Porque ahora pienso en ti
          A       Dm
Mas que ayer, mucho más


Dm              Dm7       Dm
Yo vivía tan distinto, algo hermoso
        Dm7
Algo divino
 Dm   Dm7    Gm (riff 6)
lleno de felicidad
C
Yo sabia de alegrías, la belleza de la vida
               F   A#
Pero no de soledad
               Gm A
pero no de soledad
                      Dm
De eso y muchas cosas mas
          Gm (riff 7)  A
Yo jamás sufrí
         Dm   Dm7  Dm
yo jamás llore
           Gm (riff 7)  A
Yo era muy feliz
        Dm
yo vivía muy bien

riff 6

E|------------------------------------------------/
B|--------11/10-8---------------------------------/
G|---9/10----------10-10/12-----------------------/
D|------------------------------------------------/
A|------------------------------------------------/
E|------------------------------------------------/

riff 7

E|-------------------------------------------------/
B|--------8---8---------10---10--------------------/
G|----5/7---7---7---7/9----9----9------------------/
D|-------------------------------------------------/
A|-------------------------------------------------/
E|-------------------------------------------------/


(CORO)

                 Gm C
Hasta que te conocí
                 F   Dm
Vi la vida con dolor
              Gm      A#
No te miento fui feliz
                      A    Dm
Aunque con muy poco amor
                 Gm   C
Y muy tarde comprendí
                 F    A#
Que no te debía amar
             Gm
Porque ahora pienso en ti
          A       Dm
Mas que ayer, mucho más


Final: Dm  A (en todo el final)

riff 8, riff 9 X2

riff 10, riff 11, riff 10, riff 12

riff13


riff 8

E|------------------------------------------------/
B|------------------------------------------------/
G|------------------------------------------------/
D|------------------------------------------------/
A|-----------------5------------------------------/
E|---5-6-5-6-5-6-5---5-5-4-3----------------------/

riff 9

E|------------------------------------------------/
B|------------------------------------------------/
G|------------------------------------------------/
D|------------------------------------------------/
A|-----------------7------------------------------/
E|---5-6-5-6-5-6-5---5-3-1-3/5--------------------/

riff 10

E|------------------------------------------------/
B|------------------------------------------------/
G|------------------------------------------------/
D|------------------------------------------------/
A|-----------------5-5-4-5-5/7--------------------/
E|---5-6-5-6-5-6-5--------------------------------/

riff 11

E|------------------------------------------------/
B|------------------------------------------------/
G|------------------------------------------------/
D|------------------------------------------------/
A|-----------------7-7-5-7-7/8--------------------/
E|---5-6-5-6-5-6-5--------------------------------/

riff 12

E|------------------------------------------------/
B|------------------------------------------------/
G|------------------------------------------------/
D|------------------------------------------------/
A|-----------------7-7-5-4-5----------------------/
E|---5-6-5-6-5-6-5--------------------------------/

riff 13

E|---5-5-5-----5-----5-5-6-----------------------------6-5--/
B|---------8-6---6-6-------8---5-5-8-8-5-5-8-8-5-5-8-8------/
G|----------------------------------------------------------/
D|----------------------------------------------------------/
A|----------------------------------------------------------/
E|----------------------------------------------------------/


     Dm
Ahora quiero que me digas
                 A
Si valió o no la pena el haberte conocido
              Dm
Porque no te creo mas
                       Dm
Y es que tu fuiste muy mala
               A
Si muy mala conmigo
                                       Dm
Por eso no te quiero, no te quiero ver jamas
                              A
Vete, vete, vete salte de mi pena
                                       Dm
Vete, no te quiero, no te quiero ver jamas.


riff final

E|--------10----10-10-9-10-10/12----------------------------/
B|---9/10----10---------------------------------------------/
G|----------------------------------------------------------/
D|----------------------------------------------------------/
A|----------------------------------------------------------/
E|----------------------------------------------------------/

E|--------12-12-------12-12-15-13-12-8----------------------/
B|--10-10-------10-10---------------------------------------/
G|----------------------------------------------------------/
D|----------------------------------------------------------/
A|----------------------------------------------------------/
E|----------------------------------------------------------/
Suggest correction
Give kudos to tab author, rate the tab!
1 2 3 4 5
comments
print report bad tab
guest
You may want to rate the tab now too:
select rating
Wanna post a correction for this tab? Suggest correction