Oops, an error
Loading. Please wait.

Hechicera Tab

version 2
version 2

Whole song

Interactive

106 views 1 this week
no commentswrite comment
1 2 3 4 5
3 more votes to show rating
add to favorites
launch autoscroll
font size
0
reset
how to read this tab
guitar tuner
×
Best way to learn
"Hechicera"
Autoscroll
slow
fast
+/-
esc
set tempo
stop
La cancion original es tocada con dos guitarras 


intro:
       Am       Am                (Var1)                (Var2)
e |----0--------0-----5---5---5---5/7/5---5---5---5----8-8-8-7-7-5-|
B |----1--------1-----5---5---5---5/7/5---5---5---5----8-8-8-7-7-5-|
G |----2--------2-----5---5---5---5/7/5---5---5---5----8-8-8-7-7-5-|
D |----2--------2--------------------------------------------------|
A |----0--------0--------------------------------------------------|
E |----x--------x--------------------------------------------------|
   AAaaahhhh... AAaaahhhh...                


(a esta parte que esta a continuacion la llamaremos AmVar1)

1ra guitarra                       (Var1)                       
e |----5-5-5-5-5-5-5-5-5-5-5-5-5-5-5/7/5-|
B |----5-5-5-5-5-5-5-5-5-5-5-5-5-5-5/7/5-|
G |----5-5-5-5-5-5-5-5-5-5-5-5-5-5-5/7/5-|

 2da guitarra
e |------------------------------------------------|
B |--------------------0-1-------------------0-1-2-| X2
G |--0-2-2-0-2-2-2-0-2-----0-2-2-0-2-2-2-0-2-------|

(la segunda guitarra puntea dos veces por cada compas de la primera
guitarra)


AmVar1
Hay una mujer hermosa

la mas primorosa de ojitos negros, de

piel gitana
AmVar2
es, es una hechicera

que domina al hombre con sus

danzares, con las caderas


AmVar1
No, no se sabe donde

de donde ha salido

y donde ha ido ella es un misterio
AmVar2
se mueve con cadencia

con la inocencia de una princesa

que nadie toca

 
 Dm
Ay! que bonitos ojos
 F
Ay! que bonita boca
 AmVar1  *3 
es una hechicera

una seductora

*3 cuando halla llegado aqui, el punteo de la guitarra empieza de esta
manera:

e |--------------------------------------------------------------------|
B |----------0-1-------0-1-------0-1-0-1-3-1-0-1-0---0-----------------|
G |----0-2-2-----0-2-2-----0-2-2-------------------2-------------------|


Am
Ven dejame estrecharte

deja desnudarte bajo la luna

poquito a poco,
AmVar2
es una hechicera que domina al hombre con sus danzares,

con las caderas


Dm
Ay! que bonitos ojos
F
Ay! que bonita boca
AmVar1  *3
es una hechicera

una seductora

es una hechicera

una seductora


Solo con el bajo

D |----------------------------------------------------|
A |----0-0-0-0---0------0-0-0-0-0---3------------------| Em
E |------------3----0-3-----------3----1-1-1-1-0-1-----|

*3 hasta el final

Dm
Ay! que bonitos ojos
E
Ay! que bonita boca
Dm
Ay! soy su prisionero
F                E7  *3 (hasta el final)
y me reviento en deseo


AmVar1
una seductora

es una hechicera

una seductora


Haa!

una seductora

es una hechicera

una seductora
Suggest correction
Give kudos to tab author, rate the tab!
1 2 3 4 5
comments
print report bad tab
guest
You may want to rate the tab now too:
select rating
Wanna post a correction for this tab? Suggest correction