Oops, an error
Loading. Please wait.

Hechicera Bass Tab

version 1
version 1

Whole song

Interactive

137 views 1 this week
no commentswrite comment
1 2 3 4 5
2 more votes to show rating
add to favorites
launch autoscroll
font size
0
reset
guitar tuner
backing track
0:00
0:00
×
Best way to learn
"Hechicera"
Autoscroll
slow
fast
+/-
esc
set tempo
stop
ESTOY SEGURO K LES GUSTARA MI TABLATURA
LAS OTRAS TRANSCIPCIONES TENIAN BUENAS CALIFICACIONES
PERO TIENEN MUCHOS ERRORES ESPERO PUENDAN CALIFICAR
Y DEJAR SU COMENTARIO ESTOY 100% SEGURO K LA ROLA ESTA BIEN
CUALQUIER DUDA MI CORREO ES alezzandro_19@

Intro:

G|----------------------------------|---------------------------------|
D|----------------------------------|---------------------------------|x1
A|------------------------------5-3-|----------------------------55-3-|
E|-55-5---53-5---0-3?--55-5?-53-----|--55-5--53-5?-0-3--55-5?5-3------|

Verso: Hay una mujer hermosa...

G|----------------------------------|---------------------------------|
D|----------------------------------|---------------------------------|x5
A|------------------------------5-3-|----------------------------55-3-|
E|-55-5---53-5---0-3?--55-5?-53-----|--55-5--53-5?-0-3--55-5?5-3------|

Ay! que bonitos ojos...

G|---------------------------------|------------------------------------|
D|---------------------------------|-3-3-3?--3-5-3---------3-3-3?-3-3---|
A|55-5?--53-5---3---55-5?-53--5--7-|----------------5-7-----------------|
E|-------------5-------------------|----------------------------------3-|

Coro
Es una hechicera...
G|-------------------------------|--------------------------------------|
D|-------------------------------|--------------------2-2--2-2----------|
A|----------------------------3--|-----------------------------3-3-3-3--|
E|-5---3-5-0-3---5-5?-5-5-3-3----|-1-1-1?--1-1-1--1---------------------|


Ven déjame estrecharte deja desnudarte bajo la...

G|----------------------------------|---------------------------------|
D|----------------------------------|---------------------------------|x2
A|------------------------------5-3-|----------------------------55-3-|
E|-55-5---53-5---0-3?--55-5?-53-----|--55-5--53-5?-0-3--55-5?5-3------|


Ay! que bonitos ojos...

G|---------------------------------|------------------------------------|
D|---------------------------------|-3-3-3?--3-5-3---------3-3-3?-3-3---|
A|55-5?--53-5---3---55-5?-53--5--7-|----------------5-7-----------------|
E|-------------5-------------------|----------------------------------3-|


Coro:
Es una hechicera...

G|-------------------------------|--------------------------------------|
D|-------------------------------|--------------------2-2-2-2-----------|
A|----------------------------3--|-----------------------------3-3-5----|
E|-5---3-5-0-3---5-5?-5-5-3-3----|-1-1-1?--1-1-1--1---------------------|


Solo de guitarra:

G|-------------------------------|--------------------------------------|
D|-------------------------------|--------------------2-2-2-2-----------|
A|----------------------------3--|-----------------------------3-3-5----|
E|-5---3-5-0-3---5-5?-5-5-3-3----|-1-1-1?--1-1-1--1---------------------|


Ay! que bonitos ojos...

G|------------------------------------------------|
D|------------------------------------------------|
A|------------------------------------------------|
E|-1----------------------------------------------|


Ay! que bonita boca

G|------------------------------------------------|
D|------------------------------------------------|
A|------------------------------------------------|
E|-0----------------------------------------------|

Ay! Soy su prisionero...

G|------------------------------------------------|
D|------------------------------------------------|
A|------------------------------------------------|
E|-1----------------------------------------------|

Y me reviento en deseo...


G|-----------------------------------|
D|-----------------------------------|
A|-----------------------------------|
E|-3~~~~~0~~~~~~~3~~~~~~~~~~~~--------|


Es una hechicera...

G|-----------------------------|--------------------------------------|
D|-----------------------------|--------------------2-2-2-2-----------|
A|----------------------------3|-----------------------------3-3-5----|x1
E|-5---3-5-0-3---5-5?-5-5-3-3--|-1-1-1?--1-1-1--1---------------------|


G|-----------------------------|--------------------------------------|
D|-----------------------------|---------------------------2----------|x1
A|----------------------------3|--------------------------------------|
E|-5---3-5-0-3---5-5?-5-5-3-3--|-1-1-1?--1-1-1--1-------1-------------|


?ESTO ES TODO?
LO  K  SIGUE  SOLO SE REPITE?
BYE SUERTE
Suggest correction
Give kudos to tab author, rate the tab!
1 2 3 4 5
comments
print report bad tab
guest
You may want to rate the tab now too:
select rating
Wanna post a correction for this tab? Suggest correction