Oops, an error
Loading. Please wait.

Hechicera Bass Tab

version 2
version 2

Whole song

Interactive

92 views 1 this week
no commentswrite comment
1 2 3 4 5
3 more votes to show rating
add to favorites
launch autoscroll
font size
0
reset
guitar tuner
backing track
0:00
0:00
×
Best way to learn
"Hechicera"
Autoscroll
slow
fast
+/-
esc
set tempo
stop
Intro
AAAAAAAAAHHHHHHHHHHHH
G-------------------------------------------------
D-------------------------------------------------
A-0~~~~~~~~~~~~~~~~~~~~~~~~~~~~~~~~~~~~~~~~~~~~~~-
E-------------------------------------------------

verso 1
G|-----------------------------|-----------------------------|
D|-----------------------------|-----------------------------| X4
A|-----------------------5--3--|-----------------------5-5-3-|
E|-55-5-3355---0355-5-33-------|-55-5-3355---0355-5-33-------|


verso 2
G|-----------------------------|-----------------------------|
D|-----------------------------|-----------------------------| X2
A|-----------------------5--3--|-----------------------5-5-3-|
E|-55-5-3355---0355-5-33-------|-55-5-3355---0355-5-33-------|

aaaaay que bonitos ojos
G|--------------------------|--------------------------|
D|-------------------------2|-33-3-35-3---0355-5-33----|
A|-55-5-3355---0355-5-33-5--|--------------------------|
E|--------------------------|----------------------5/0-|

coro
es una hechicera
G|---------------------------------------------------------|
D|--------------------------------------------2-2-2--------|
A|--------------------------3----------------------3-3-5---|
E|-5---0355---0355-5-33-3-3-----11-1-00-11--5------------5-|

verso 3
G|-----------------------------|-----------------------------|
D|-----------------------------|-----------------------------| X2
A|-----------------------5--3--|-----------------------5-5-3-|
E|-55-5-3355---0355-5-33-------|-55-5-3355---0355-5-33-------|

aaaaay que bonitos ojos
G|--------------------------|--------------------------|
D|-------------------------2|-33-3-35-3---0355-5-33----|
A|-55-5-3355---0355-5-33-5--|--------------------------|
E|--------------------------|----------------------5/0-|

coro
es una hechicera
G|---------------------------------------------------------|
D|--------------------------------------------2-2-2--------|X2
A|--------------------------3----------------------3-3-5---|
E|-5---0355---0355-5-33-3-3-----11-1-00-11--5------------5-|

durante el solo de guitarra
G|--------------------------------------------------------|
D|-------------------------------------------2-2-2--------|X2
A|--------------------------3---------------------3-3-5---|
E|-55-5-3355---0355-5-55-33----11-1-00-11--5------------5-|

aaaaay que bonitos ojos
G|------------------------------------------------|
D|------------------------------------------------|
A|------------------------------------------------|
E|-0~~~~~~~~~~~~~~~~~~~~~~~~~~~~~~~~~~~~~~~-------|

aaaaay que bonita boca
G|------------------------------------------------|
D|------------------------------------------------|
A|------------------------------------------------|
E|-0~~~~~~~~~~~~~~~~~~~~~~~~~~~~~~~~~~~~~~~-------|

aaaaay soy su prisionero
G|------------------------------------------------|
D|------------------------------------------------|
A|------------------------------------------------|
E|-0~~~~~~~~~~~~~~~~~~~~~~~~~~~~~~~~~~~~~~~-------|

y me reviento en deseo
G|-----------------------------------|
D|-----------------------------------|
A|-----------------------------------|
E|-0~~~~~~~~~~~~0~~~~~~~~~~~~--------|

coro
G|---------------------------------------------------------|
D|--------------------------------------------2-2-2--------|
A|--------------------------3----------------------3-3-5---|
E|-5---0355---0355-5-33-3-3-----11-1-00-11--5------------5-|

G|---------------------------------------------------|
D|--------------------------------------------2------|
A|--------------------------3------------------------|
E|-5---0355---0355-5-33-3-3-----11-1-00-11--5--------|

solo de bajo
G|---------------------------------------------------|
D|-------------------------------------------2-------|
A|--------------------------3------------------------|
E|-55-5-3355---0355-5-55-33----11-1-00-11--5---------|

repetir esto hasta el final
G|----------------------------------------------------------|
D|---------------------------------------------2-2-2--------|
A|---------------------------3----------------------3-3-5---|
E|-0355--0355--0355-5-5-33-3-----11-1-00-11--5------------5-|
Suggest correction
Give kudos to tab author, rate the tab!
1 2 3 4 5
comments
print report bad tab
guest
You may want to rate the tab now too:
select rating
Wanna post a correction for this tab? Suggest correction