Oops, an error
Loading. Please wait.

Huele A Tristeza Bass Tab

version 1
version 1

Whole song

Interactive

70 views 1 this week
no commentswrite comment
1 2 3 4 5
3 more votes to show rating
add to favorites
launch autoscroll
font size
0
reset
guitar tuner
Autoscroll
slow
fast
+/-
esc
set tempo
stop
Help us to improve Ultimate-Guitar.com Take our survey!
×
Intro:
G |--------------------------------------------------------
D |--------------------------------------------------------
A |--0-3------0-3------3-----------------------------------
E |----------------------5-----5-3-1----1---3---3----------


Verso:
G |--------------------------------------------------------
D |--------------------------------------------------------
A |--3-3-3-3-3-3-3-3-3-0-----------------------------------
E |----------------------3-3-3-3-3-3-3-3/4/5-5-5-5-5-5-5-5-


G |--------------------------------------------------------
D |--------------------------------------------------------
A |----------------------3-3-3-3-3-3-3-3-3-----------------
E |--5-3-1-1-1-1-1-1-1-1-------------------3-3-3-3-3-3-3-3-


G |--------------------------------------------------------
D |--------------------------------------------------------
A |--3-3-3-3-3-3-3-3-3-0-----------------------------------
E |----------------------3-3-3-3-3-3-3-3/4/5-5-5-5-5-5-5-5-


G |--------------------------------------------------------
D |--------------------------------------------------------
A |----------------------5-5-5-5-5-5-5-5-5-----------------
E |--5-3-1-1-1-1-1-1-1-1-------------------3-3-3-3-3-3-3-3-


Pre-Chorus:
G |--------------------------------------------------------
D |--------------------------------------------------------
A |--7-7-7-7-7-7-7-8-8-8-8-8-8-8-3-3-3-3-------------------
E |--------------------------------------0-0-0-0-5-5-5-5-1-


G |--------------------------------------------------------
D |--------------------------------------------------------
A |----------------3-3-3-------------5-5-5-5-5-5-5-5-------
E |--1-1-1/2/3-3-3-------0-0-0-5-5-5-----------------3-3-3-


G |--------------|-----------------------------------------
D |--------------|-----------------------------------------
A |--------------|-----------------------------------------
E |--3-3-3-3-3-3-|--1-1-3-3--------------------------------


Coro:
G |-------|------------------------------------------------
D |-------|------------------------------------------------
A |--12\3-|-3-3-3-3-3-0----------------------------------2-
E |-------|-------------5-5-5-5-3-1-1-1-1-1/2-3-3-3-3-3-5--


G |--------------------------------------------------------
D |--------------------------------------------------------
A |--3-3-3-3-3-0-------------------------------------------
E |--------------5-5-5-5-3-1-1-1-1-1/2-3-3-3-3-3/5(mantener
                                                     Nota)

*TOCAR:
       Verso
       Pre-Chorus
       Coro x2
       Intro
       Coro (hasta que termine la canción)

Este es un bajo bastante sencillo y fácil, espero que les guste
Suggest correction
Give kudos to tab author, rate the tab!
1 2 3 4 5
comments
print report bad tab
guest
You may want to rate the tab now too:
select rating
Wanna post a correction for this tab? Suggest correction