Oops, an error
Loading. Please wait.

Hundido En Un Rincón Tab

version 5
version 5

Whole song

Interactive

17 views 1 this week
no commentswrite comment
1 2 3 4 5
3 more votes to show rating
add to favorites
launch autoscroll
font size
0
reset
how to read this tab
guitar tuner
Autoscroll
slow
fast
+/-
esc
set tempo
stop
Help us to improve Ultimate-Guitar.com Take our survey!
×
Que tal brothas compadres.. aqui esta el solo de 
esta rola; ya lo habia sacado antes, pero no habia 
visto que daban 5 puntos por el, asi que ahi esta

INTRO

e-----------------------------------------------------
B-----10--9-------------------------------------------
G------------11---------9--9--9--9--11----------------
D-11-------------11--9------------------12--11--11--9-
A-----------------------------------------------------
E-----------------------------------------------------

e-----------------------------------------------------
B-------------10--9-----------------------------------
G--------------------11---------9--9--9--9------------
D------9--11-------------11--9------------------------
A--12---------------------------------------12--12----
E-----------------------------------------------------

e-----------------------------------------------------
B-----------------------------------------------------
G-----------------------------------------------------
D--12--11--9------9--11-------------------------------
A-------------12--------------------------------------
E-----------------------------------------------------

Te escribo en un rincón
Donde siempres me has tenido

e-------------------
B-------------------
G-----9--11--11--9--
D-11----------------
A-------------------
E-------------------

En soledad

e---------------------------------
B---------------------------------
G-----9--11--11--9----------------
D-12----------------9------9--12--
A----------------------12---------
E---------------------------------

Hundido en un rincón
Entre polvo y el olvido

e-----------------------------------------------------
B--10--10--10--10--10--9--9--9--10--12----------------
G---------------------------------------11--11--11----
D-----------------------------------------------------
A-----------------------------------------------------
E-----------------------------------------------------

e----------------------
B----------------------
G--9--9--9-------------
D-----------12--12--11-
A----------------------
E----------------------

(mientras que se canta el resto de la rola se toca esto)
e--5--------5--------4--------4--------7--------7-------
B-----5--------5--------5--------5--------7--------7----
G--------6--------6--------4--------4--------7--------7-
D-------------------------------------------------------
A-------------------------------------------------------
E-------------------------------------------------------

e--7--------7--------5--------5--------4--------4-------
B-----7--------7--------5--------5--------5--------5----
G--------7--------7--------6--------6--------4--------4-
D-------------------------------------------------------
A-------------------------------------------------------
E-------------------------------------------------------

e--7--------7-------------------------------------------
B-----7--------7----------------------------------------
G--------7--------7--7--9--11--11--9--7-----------------
D-------------------------------------------------------
A-------------------------------------------------------
E-------------------------------------------------------

Te dejo esta carta
Buscando fin a este dolor
Siento que estoy muriendo
Pero no podía vivir más así
Te escribo en un rincón

Ay pobre de mi, solo en un rincón
Ay pobre de mi, solo el corazón
Hundido en un rincón

Se repite la INTRO

Te fuiste escurriendo
Entre mis manos y mis sueños
Y los años
Muchos años que me tuviste
Que me dejaste
Hundido en soledad
Siento el aire espeso
Ya ni puedo respirar
Me dueles hasta el hueso
Suggest correction
Give kudos to tab author, rate the tab!
1 2 3 4 5
comments
print report bad tab
guest
You may want to rate the tab now too:
select rating
Wanna post a correction for this tab? Suggest correction