Oops, an error
Loading. Please wait.

Hundido En Un Rincón Bass

version 2
version 2

Whole song

Interactive

by Maná
50 views 1 this week
no commentswrite comment
1 2 3 4 5
3 more votes to show rating
add to favorites
×
Save as Personal and add changes to this tab that will be seen only by you. Learn more ›
×
You can save this tab as Personal to edit and correct it or add notes. All changes will be seen only by you. Learn more »
save as personal
new!
launch autoscroll
font size
0
reset
guitar tuner
Autoscroll
slow
fast
+/-
esc
set tempo
stop
Hay que escucharla bien para agarrar los tiempos...

El bajo inicia en...Te dejo esta carta...
  A     E      Bm   E       F#m   E     D 
G|------------|------------|-----------|-----------|
D|------------|------------|-4---------|-----------|
A|------7-----|-----7---764|------7----|5----------|
E|5-----------|7-----------|-----------|-----------|
 *         4 veces         *
 Ay, pobre de mi...
  A    E       Bm   E       A    E      F#m   E 
G|------------|------------|-----------|-----------|
D|------------|------------|-----------|-4---------|
A|-----7------|-----7-7s9s7|-----7-----|------7----|
E|5-----------|7---7-------|5----------|-----------|
 *                     2 veces                     *
    Puente
  F#m    E     D     E      F#m   E     D      E 
G|------------|------------|-----------|77--76---9--|
D|------------|--------7h9-|4----------|--77----9-9-|
A|------------|5-----7-----|------7----|-------7---7|
E|2------0---0|------------|-----------|------------|
                                       * Junto con  *
                                       * la guitarra*
  F#m   E      Bm    E      F#m   E     D    E             
G|------4-----|----------4-|-----------|-------9---|
D|4-------22-2|---------2--|4---4-222-2|------9-9--|
A|-4----------|2---2-------|-----------|5--5-7----7|
E|--2---------|------0-----|-----------|-----------|

  F#m   E      D     E      F#m   E     D   E
G|------------|----------47|-----------|---------------|
D|------------|------------|4---4-222-2|---------------|
A|9---9-777--7|5---5-777---|-----------|5
Suggest correction
Give kudos to tab author, rate the tab!
1 2 3 4 5
comments
print report bad tab
guest
Wanna post a correction for this tab? Suggest correction