Oops, an error
Loading. Please wait.

Justicia, Tierra Y Libertad Tab

version 1
version 1

Whole song

22 views 1 this week
no commentswrite comment
1 2 3 4 5
3 more votes to show rating
add to favorites
launch autoscroll
font size
0
reset
how to read this tab
guitar tuner
Autoscroll
slow
fast
+/-
esc
set tempo
stop
Help us to improve Ultimate-Guitar.com Take our survey!
×
Ésta es la primera canción que mando a la página y se la quiero 
dedicar a el amor de mi vida, JIME 'Churlen' VAZQUEZ, que aunque
no le guste que toque la guitarra siempre me escucha y me da
fuerzas para seguir.


     E|---------------------------|
     B|-------------------5-5-5---|
(A)  G|-----5-4-5--7--5-7---------|
     D|---7-----------------------|
     A|---------------------------|
     E|---------------------------|


     E|-------5------------------------------------|
     B|---5-5---5-5-5---5--------------------------|
(B)  G|---------------7---7--7-5--4-5-4--7-5-4-----|
     D|----------------------------------------7---|
     A|--------------------------------------------|
     E|--------------------------------------------|


En la introducción se toca (I) sin los acordes, sólo con (A) y (B).

     _
    |  (A) Am          F       G    Am     F  G
(I)_|      Justicia, tierra y libertad
    |  (B) Am          F       G    Am     F  G
    |_     justicia, tierra y libertad.

      _
     |  Am         F    G
     |  Oye tú mi canto,
     |    Am       F    G
(II)_|  óyelo, óyelo
     |  Am          F    G
     |  oye tú mi llanto,
     |    Am       F    G
     |_ óyelo, óyelo.


Am     F  G   (4 veces)


Am              F       G      Am     F  G
Suggest correction
Give kudos to tab author, rate the tab!
1 2 3 4 5
comments
print report bad tab
guest
You may want to rate the tab now too:
select rating
Wanna post a correction for this tab? Suggest correction