Oops, an error
Loading. Please wait.

Justicia, Tierra Y Libertad Bass Tab

29 views 1 this week
no commentswrite comment
1 2 3 4 5
3 more votes to show rating
add to favorites
launch autoscroll
font size
0
reset
guitar tuner
×
Best way to learn
"Justicia, Tierra Y Libertad"
Autoscroll
slow
fast
+/-
esc
set tempo
stop
Intro
G|---------------------------|
D|---------------------------|
A|-------3--------0-3----2-5-| x4
E|-5-555---5--0-1------3-----|

Verso
G|---------------------|---------------------|
D|---------------------|---------------------|
A|------3--------0-----|------3--------0---2-| x4
E|-5-55---5--0-1---3/0-|-5-55---5--0-1---3---|

[Intro] x2
[Verso] x5

Coro
G|----------------------------|
D|----------------------------|
A|---3-5----3-0----0-3----2-5-| x16
E|-5------5------1------3-----|

Puente
G|----------------|-------------------|
D|----------------|-------------------|
A|---2-2-22-------|-----3-5-3---------|
E|-5--------3-5/1-|-3-5-------1-1-3/1-|

[Coro] hasta acabar la cancion
Suggest correction
Give kudos to tab author, rate the tab!
1 2 3 4 5
comments
print report bad tab
guest
You may want to rate the tab now too:
select rating
Wanna post a correction for this tab? Suggest correction