Oops, an error
Loading. Please wait.

Justicia, Tierra Y Libertad Chords

version 2
version 2

Whole song

60 views 3 this week
no commentswrite comment
1 2 3 4 5
3 more votes to show rating
add to favorites
launch autoscroll
font size
0
reset
transpose
0
reset
display chords
guitar tuner
×
Best way to learn
"Justicia, Tierra Y Libertad"
Autoscroll
slow
fast
+/-
esc
set tempo
stop
ESCUCHA LA CANCION Y TE GUIARAS.


e------------------0-0-!
b-----0-1-0-1-3-1-3----!
g----2-----------------!
d----------------------!
a--0/------------------!

  Justicia Tierra y Libertad

e-0-6-1-0-0-1-0-0-1-3-----------------!
b---------------------3-3-------------!
g------------------------5-5--4-5-4-2-!


  Am
Justicia, tierra y libertad
   Am              F      G
oye tu mi canto, oyelo, oyelo
oye tu mi llanto, oyelo, oyelo

Am - F - G

Am             F       G            Am   F  G
Hermanos y hermanas de otras razas
Am            F         G           Am   F  G
de otro color y un mismo corazon  
Am              F          G        Am   F  G
rezas y rezas, y nada enderezas
Am              F      G        Am   F  G
por eso hagamos la revolución de amor oye

Estamos exigiendo todo el respeto
respeto al indio y a su dignidad
ya lo dijo Villa, dijo Zapata
Justicia, Tierra y Libertad

Oye tu mi canto....
            Am                  F           G
¿como tendriamos libertad? ¿como tendriamos dignidad?
      Am             F            G
como desearía yo, como desearía el amor
      Am                               F             G    
¿Cuando tendremos la democracia?, cuando tumbemos la burocracia 
      Am                    F           G
¿cuanto desearía yo?, menos demencia y mas amor
  Am   F  G     Am     F      G
Amor, dolor , amor, oye tu mi canto

Justicia tierra y libertad....

---------------------------------------------------------------
este punteo ba en casi toda la cancion

 e-5-5-7-9--------!
 b--------6-6-8-6-!


todo lo demas que lo toca otra guitarra es arpegeo
con las siguientes notas:
  
  Am

 ]-0-|---|---|---|     
 ]-0-|---|---|---|
 ]-0-|---|---|---|
 ]---|---|-O-|---|
 ]---|---|-O-|---|
 ]-O-|---|---|---|
   5:espacio


   F

 ]-O-|---|---|---|
 ]---|---|-0-|---|
 ]---|---|-0-|---|
 ]---|---|-0-|---|
 ]-0-|---|---|---|
 ]-0-|---|---|---|
   8:espacio


  G


 ]-O-|---|---|---|
 ]-O-|---|---|---|
 ]---|-O-|---|---|
 ]---|---|-O-|---|
 ]---|---|-O-|---|
 ]-0-|---|---|---|
   3:espacio


POR SERGIO SANTIBAÑEZ VALLENAR CHILE.
Suggest correction
Give kudos to tab author, rate the tab!
1 2 3 4 5
comments
print report bad tab
guest
You may want to rate the tab now too:
select rating
Wanna post a correction for this tab? Suggest correction