Oops, an error
Loading. Please wait.

Justicia, Tierra Y Libertad tab

version 2
version 2

Whole song

by Maná
47 views 1 this week
no commentswrite comment
1 2 3 4 5
2 more votes to show rating
add to favorites
×
Save as Personal and add changes to this tab that will be seen only by you. Learn more ›
×
You can save this tab as Personal to edit and correct it or add notes. All changes will be seen only by you. Learn more »
launch autoscroll
font size
0
reset
how to read this tab
guitar tuner
edit
Autoscroll
slow
fast
+/-
esc
set tempo
stop
Esta es una nueva versiòn.
En general, el disco Revolución de Amor es muy bueno,
por lo que que he tratado de sacar todas las canciones.
Ahora los dejo con este tab, que está
muy completo, y muy detallado,
por lo que espero que puedan sacarla.

En toda la canción hay una guitarra que hace este arpegio rápido

   Am             F               G
|-5-----|     |-------|     |-------------|
|---5---|     |-6-----|     |-8-------8---|
|-----5-| x 4 |---5---| x 2 |---7---7---7-| 
|-------|     |-----7-|     |-----9-------| __________________
|-------|     |-------|     |-------------|                   |
|-------|     |-------|     |-------------|                   |
                                                              |  
  Am                F            G                            |
|-5-----5-----7---8-----------------------------|             |
|---5-----5-----5----5--6-----6-----8-------8---|             |
|-----5-----5-------------5-----5-----7---7---7-|             | 
|---------------------------7-----7-----9-------| ____________|
|-----------------------------------------------|
|-----------------------------------------------| esto se repite en toda la canción

Intro (se toca con una guitarra electro-acústica)

  Am                                                                         
|-----------------------|           |-----7---------------------------------|
|---1-0-1~-2~-1-2/3-3-3-|           |-5-5---5-5-5-3-5-3---3---------3-------|
|-----------------------| ¡juticia  |-------------------5---5-4-5-4---5-4-2-|
|-2---------------------| tierra y  |---------------------------------------|
|-----------------------| libertad! |---------------------------------------|
|-----------------------|          |---------------------------------------|

Intro 
Parte2
...¡oye tú mi canto...
aquí empieza el arpegio...

y también va esto

  Am                F               G
|----------------------------------------------------------|
|-----5-6-5--8-6--5-6-5---6-5-------5-6-5------------------|
|-5-7-------------------7-----7-5-7-------7-5-4-5-4---5----|
|---------------------------------------------------7----7-|
|----------------------------------------------------------|
|----------------------------------------------------------|

-desde ahora, todos los punteos son tocados por una guitarra eléctrica 
con distorsión
el primero empieza con un Slide ascendente, esto quiere decir que se 
pisan los primeros espacios de las cuerdas 5°y 6° y se sube 
hasta el espacio 10 (más o menos ), y luego
bajas un poco,-

..,aquí empieza lo bueno

0:38
  Am              F     G                  Am         F          G
|------------------7-8-9/10(BR)-(9)-9-8----8---------11/12~-10-8-10-12-10-|
|-----10-10-8/10------------------------10---10-10~-----------------------|
|-7/9---------------------------------------------------------------------|
|-------------------------------------------------------------------------|
|-------------------------------------------------------------------------|
|-------------------------------------------------------------------------|

  Am                       F   G        Am            F  
|-11/12~--10-8----7-8-10-8-10-------7-8-12-8------------8-|
|--------------10--------------8-10----------------8-10---|
|---------------------------------------------9-10--------|
|---------------------------------------------------------|
|---------------------------------------------------------|
|---------------------------------------------------------|
   
  G                  Am
|------------------------------|
|-10-10~--10-------------------|
|------------9-7---------------|
|----------------10-9-7-10-7~\-|
|------------------------------|
|------------------------------|

Versos: 

 Am             F       G      Am
Hermanos y hermanas de otras razas

 Am        F              G     Am
de otro color y un mismo corazón

 Am          F   G         Am
Rezas y rezas y nada enderezas

1:17
 Am       F        G       Am
|-------------------------------|
|-------------------------------|
|-----4-5-7--9-7-5-7---7-9-8/9~-|
|---7----------------5----------|
|-7-----------------------------|
|-------------------------------|

 Am       F          G      Am        F   G             
por eso hagamos la revolución de amor, uh yeah

1:30
 Am               F  G                Am         F             G
|------------------------------------------11/12-12BD(11)-----10-15-10\-|
|----------------------12/13-12-10-12-10\------------------13-----------|
|------9-9------9-------------------------------------------------------|
|-7-10-----10-7---10\---------------------------------------------------|
|-----------------------------------------------------------------------|
|-----------------------------------------------------------------------|

Estamos exigiendo todo el respeto
respeto al indio y a su dignidad
Ya lo dijo Villa, dijo Zapata


2:02
  Am                    F            G          Am
|--------------------------------------------------|
|------------------------------------8/10-10-8/10\-|
|--9--9--9--9-------9\---9--9--9--9----------------|
|-10-10-10-10--7-7/10\--10-10-10-10----------------|
|-10-10-10-10--7-7/10\--10-10-10-10----------------|
|--------------------------------------------------|


2:11
  Am           F     G         Am
|-12-12-12-12-10-12-13-12-8--------|
|---------------------------10-10\-|
|----------------------------------|
|----------------------------------|
|----------------------------------|
|----------------------------------|

justicia, tierra y libertad, oh yeah

2:19                                  2:26
 Am       F   G             Am           F          G
|-3/5\/7\/8\/10\-15/17-15/17\-|        |-15-12--------|
|-----------------------------|        |-------13-----|
|-----------------------------| oye tú |----------14\-|
|-----------------------------|   mi   |--------------|
|-----------------------------| canto  |--------------|
|-----------------------------|        |--------------|

óyelo, óyelo

2:30
 F                 G                Am
|----10-12-12-10-8-10-10---------------|        
|-13---------------------13-10-13-10~\-|        
|--------------------------------------|        
|--------------------------------------|        
|--------------------------------------|        
|--------------------------------------|

oye tú mi canto, óyelo, óyelo
oye tú mi canto, óyelo, óyelo
 
2:45
 Am                                           F                
|-------17----17-17--------17----17----17-17--17-19-19-19-20-20--|
|-15/17----17--------15/17----17----17---------------------------|
|----------------------------------------------------------------|
|----------------------------------------------------------------|
|----------------------------------------------------------------|
|----------------------------------------------------------------|

  G                   Am
|-19/20-19/20\19-17-15-17~\-|
|---------------------------|
|---------------------------|
|---------------------------|
|---------------------------|
|---------------------------|

oye tú mi canto, óyelo, óyelo

-la mejor parte del tema es este solo-

2:58
 Am       F                 G          Am            F          G
|-8-8-7-8-7--------------10-12-13-12-10-12--------7-8-10-8-7----8-7~-|
|-----------10--10-12-13-------------------10-10-------------10------|
|--------------------------------------------------------------------|
|--------------------------------------------------------------------|
|--------------------------------------------------------------------|
|--------------------------------------------------------------------|

3:07
  Am                 F                  G        Am            F     G
|---------------------------------------------------------------------------|
|-----------------8-9/10B-(9)BD-(8)-8---------6-8-6-8\------5-5/6-5-------5-|
|-7/9B-(8)-7/9-10---------------------10-7-9------------5-7---------7-5-7---|
|---------------------------------------------------------------------------|
|---------------------------------------------------------------------------|
|---------------------------------------------------------------------------|

3:15
         Am                         F            G  
|---------------------------------------------------|
|---------------------------------------------------|
|------------------------------------------------5\-|
|----------------------------------5/7-7-7-7-5---7\-|
|----------------------------5/7-7-------------7-7\-|
|-12\0---3/5-5-5-5-3-0-3/5-5------------------------|

  Am
|---------------------------|
|-----10-8-------10-8-------|
|-7/9------9-7/9------9-7/9-|
|---------------------------|
|---------------------------|
|---------------------------|

3:22   
   F                      G           Am      
|-------------17-15----20/22-20B-(22)--16/17BD-(16)-15-12-15-12~\-|
|-15/17-17-17-------17--------------------------------------------|
|-----------------------------------------------------------------|
|-----------------------------------------------------------------|
|-----------------------------------------------------------------|
|-----------------------------------------------------------------|

3:26
 F                    G                    Am                  
|-------10-12-12-10-8-10-10-8----8-8-------------8-------------|
|-10-13-----------------------10-----10-8-10-8-----10~\--15/17-|
|----------------------------------------------9---------------|
|--------------------------------------------------------------|
|--------------------------------------------------------------|
|--------------------------------------------------------------|

 F                  G   
|-17-19-20-19-17----15/17~\-|
|----------------17---------|
|---------------------------|
|---------------------------|
|---------------------------|
|---------------------------|

-luego se sigue en los mismos acordes (Am - F - G)-

Cómo tendríamos libertad
cómo tendríamos dignidad
cómo desearía yo
como desaría el amor
cuándo tendremos la democaracia
cuando tendremos la burocracia
cuánto desearía yo
menos demencia y más amor
¡amor! (Riff A) ¡dolor! (Riff A)
¡amor! (Riff B) ¡oye tú mi canto!

 Riff A            Riff B
|-15/17-17~\12\-| |-19/20-19/20-19/20-19/20-19/20-18-17-15-17~\-|
|---------------| |---------------------------------------------|
|---------------| |---------------------------------------------|
|---------------| | --------------------------------------------|
|---------------| |---------------------------------------------|
|---------------| |---------------------------------------------|

-la parte final se hace con varios Riffs
primero son estos-

|-----------------------------------------------------|
|----------------------/10-10-10-10-10-10-10-10-10-10-|
|-4/5-5-5-5-5-4-4-5-5--/-9--9--9--9--9--9--9--9--9--9-| esto lo hacen
|-5/7-7-7-7-7-5-5-7-5--/10-10-10-10-10-10-10-10-10-10-| las 2 guitarras
|-5/7-7-7-7-7-5-5-7-7---------------------------------|
|-----------------------------------------------------|

-después viene este punteo-

4:34
 Am                 F      G          Am
|-----------------------------------8------|
|-------5-6---5---------8-8----8-10---10~\-|
|---5-7-----7---5-7-4-5------9-------------|
|-7----------------------------------------|
|------------------------------------------|
|------------------------------------------|

y luego
|----12----------------12----------------12-----|
|-13----13-12-10-12-13----13-12-10-12-13----13--|
|-----------------------------------------------|________
|-----------------------------------------------|        |
|-----------------------------------------------|        | 
|-----------------------------------------------|        | estos punteos deben tocarse
                                           | rapidísimos, o si no
|-15-12----------12-15-12----------12-/17~\-|            | no suenan bien
|-------13----13----------13----13----------|            |
|----------14----------------14-------------|            |
|-------------------------------------------|____________| ...sobre todo este
|-------------------------------------------|
|-------------------------------------------|

-luego sigue esto, tocado por las dos guitarras- 

|-7/-8--8--8--8--8-7-7--8--8--12-12-12-12-12-12-12--8-7-8-7-|
|-8/10-10-10-10-10-8-8-10-10--13-13-13-13-13-13-13--8-8-8-8-|
|-----------------------------------------------------------|
|-----------------------------------------------------------|
|-----------------------------------------------------------|
|-----------------------------------------------------------|

fade Out

fin.

Le dedico este tab a mi grupo DePsOn, y en general a
los Fans de Maná.
Mándenme cualquier tab, algún comentario, dudas u otros
a mi mail. 
28 - 08 - 2003
                      BYE

            
            
Suggest correction
Creating personal tab
Creating personal tab
You can edit any tab online and save it as your Personal.

You can edit, replace or remove any tab part or add personal notes – all changes will be seen only by you.

Personal tabs can be accessed anytime from any device, even offline.
Learn more »
Give kudos to tab author, rate the tab!
1 2 3 4 5
comments
print report bad tab
guest
Wanna post a correction for this tab? Suggest correction