Oops, an error
Loading. Please wait.

La Chula Bass

by Maná
37 views 1 this week
no commentswrite comment
1 2 3 4 5
3 more votes to show rating
add to favorites
launch autoscroll
font size
0
reset
guitar tuner
×
Best way to learn
"La Chula"
Autoscroll
slow
fast
+/-
esc
set tempo
stop
Bueno espero que les guste cualquier error o duda me
lo mandan a
hazardous_2004@
Fulvio Romeo
___________________________________________________


Afinación : E A D G

Intro
|----------------------------------|
|----------------------------------|
|----------5-----5--7-----7------7-|
|5-----5---------------------------|
Estrofa
Esta noche hay fiesta en la playa...

|----------------------------------|
|--4-4-------6-6-------------------|
|5-----5---7-----7----4-4----4-4---|
|-------------------5-----5------5-|
Coro
Ya llego la chula consentida.....

|----------------------------------|
|------------4-4------6-6----6-6---|
|--4-4-----5-----5--7-----7------7-|
|5-----5---------------------------|
despues viene esto...

No la puedo olvidar...
|----------------------------------|
|------------4-4------6-6----6-6---|
|--4-4-----2-----2--7-----7------7-|
|2-----2---------------------------|

|----------------------------------------------------|
|---------------------4-4------6-6------2-2----------|
|--4-4-------4-4----2-----2--7-----7--3-----3--------|
|2-----2---2------2----------------------------8/0---|


Trame la camilla que no aguanto mas...
Las mismas notas que el coro.
Suggest correction
Give kudos to tab author, rate the tab!
1 2 3 4 5
comments
print report bad tab
guest
You may want to rate the tab now too:
select rating
Wanna post a correction for this tab? Suggest correction