Oops, an error
Loading. Please wait.

La Puerta Azul Tab

version 3
version 3

Whole song

by Maná
25 views 1 this week
no commentswrite comment
1 2 3 4 5
3 more votes to show rating
add to favorites
launch autoscroll
font size
0
reset
how to read this tab
guitar tuner
×
Best way to learn
"La Puerta Azul"
Autoscroll
slow
fast
+/-
esc
set tempo
stop
Esta cancion la saque para la interpretacion del Cd. EN VIVO, pero
he escuchado la version de FALTA AMOR y son demasiados similares que me 
atrevo a decir que pueden usar este tab para tocarla.

Intro:

*ARMONICA- SOL:      | * O con la guitarra:
                     |
 2...                |  1. -3------3---------------|
 5 (4) 4             |  2. ---5-3----5-3--5b-5b-3--|
 5 (4) 4             |  3. ------------------------| 
(4)* (4)* 4 ...(X2)  |  4. ------------------------| X2
                     |  5. ------------------------|
                     |  6. ------------------------|

*Una guitarra acompaña a la armonica asi:

1. --0---------0-0-0-----3-3-2---|
2. --0---------1-1-1-----3-3-3---|
3. --0-----0---0-0-0-----4-4-2---|
4. --2---2-----2-2-2---2-5-5-0---| X2
5. --2-2-----2-3-3-3-3---5-5-----|
6. --0---------0-0-0-----3-3-----|

Em      C              G D Em    C              G
La conocio de quince años, el abrio la puerta azul,
         D
se enamoro,
 Em           C        G                 D
sueños en el aire, diamantes del cielo caen,
 Em     C          D
que no dan para vivir.

                 Em     C               G    D
Una y otra vez, fue quedandose en sus brazos,
Em      C          G             D 
arrodillado a sus pies, el ya cayo,
 Em             C         G                D
seduce como un pecho, conduce a la fragilidad,
 Em     C               D
siente que se va a quebrar.

Coro:

C            D
Una puerta azul,
 C               Em    
nunca hay que abrirla,
1. -3-2-0-2-2-0------|
2. -------------3-0--|
3. ------------------|
4. ------------------|
5. ------------------|
6. ------------------|
C           G              D
las pesadillas son muy largas,
C            D
una puerta azul,
 C               Em
no hay que ni tocarla,
1. -3-2-0-2-2-0------|
2. -------------3-0--|
3. ------------------|
4. ------------------|
5. ------------------|
6. ------------------|
C        G             D  
piensa que es mejor dejarla.


1. --0---------0-0-0-----3-3-2---|
2. --0---------1-1-1-----3-3-3---|
3. --0-----0---0-0-0-----4-4-2---|
4. --2---2-----2-2-2---2-5-5-0---| X2
5. --2-2-----2-3-3-3-3---5-5-----|
6. --0---------0-0-0-----3-3-----|

Em      C            G   D Em        C             G
Es mas linda que la linda, el golpe de conciencia cae,
        D
su antifaz,
 Em     C     G           D
sucia, loca, lo quiere matar,
 Em     C                  D
habia droga en la puerta azul.


C            D
Una puerta azul,
 C               Em    
nunca hay que abrirla,
1. -3-2-0-2-2-0------|
2. -------------3-0--|
3. ------------------|
4. ------------------|
5. ------------------|
6. ------------------|
C           G              D
las pesadillas son muy largas,
C            D
una puerta azul,
 C               Em
no hay que ni tocarla,
1. -3-2-0-2-2-0------|
2. -------------3-0--|
3. ------------------|
4. ------------------|
5. ------------------|
6. ------------------|
C        G             D  
piensa que es mejor dejarla.


Outro:

- Em C G D Em C G

   Em
1. -----------------0--------|
2. -----0---------3---3---0--|
3. -------0-----0-------0----|
4. ---2-------2--------------|
5. -2-------0----------------|
6. --------------------------|


Eso es todo. Dudas o comentarios, a mi mail, please. Suerte!!!
Suggest correction
Give kudos to tab author, rate the tab!
1 2 3 4 5
comments
print report bad tab
guest
You may want to rate the tab now too:
select rating
Wanna post a correction for this tab? Suggest correction