Oops, an error
Loading. Please wait.

La Sirena Tab

version 1
version 1

Whole song

Interactive

by Maná
68 views 1 this week
no commentswrite comment
1 2 3 4 5
3 more votes to show rating
add to favorites
launch autoscroll
font size
0
reset
how to read this tab
guitar tuner
×
Best way to learn
"La Sirena"
Autoscroll
slow
fast
+/-
esc
set tempo
stop
"la sirena" MUY BUEN TEMA:
===========================COMIENZO============================
INTRO:
1.-----8-9-7--------------------------------|
2.-----------10-----------------------------|
3.--------------------7---6-----------------|
4.-----7----------7--7---7------------------|
5.---7-----------5--------------------------|
6.-5------------3---2---1-------------------|

1.----8-9-7---------------------------------|
2.----------10------------------------------|
3.-----------------------6-7----------------|
4.----7----------7---7--7-------------------|
5.---7----------5---7-----------------------|
6.-5-----------3---2---1--------------------|

VERSOS.
A               A/G      D/F#
queria ella buscar a su amado
        Dm/F               A - A/G- D/F#- Dm/F
que se fue muchas olas atras
A               A/G          D/F#
queria ella escaparse de una isla
                     A - A/G- D/F#- Dm/F
de la habana tropical (se repiten acordes)
A               A/G      D/F#
montarse al arcoiris resbalar
       Dm/F            A - A/G- D/F#- Dm/F
y asi ganar su libertad
A               A/G      D/F#
salir volando, ir nadando, alguna forma
Dm/F              A - A/G- D/F#- Dm/F
de poderlo encontrar


E                D            A/C#
vestida como un hada ella se fue
E                D/#        E/G# A
montada en un delfin ella escapo
        Bm7
y en la mar ella se hundio
E  Esus  E

...nadando entre corales,caracolas y entre peces
(CON  LOS MISMOS ACORDES ANTERIORES)

e|---8^9-7------------------------------------------------------|
B|--------p10---------------------------------------------------|
G|------------------7-------------------------------------------|
D|---7----------7--7----7-9-------------------------------------|
A|--7----------5------------------------------------------------|
E|-5----------3---2---1-----------------------------------------|

...de colooores

e|--8^9---------------------------------------------------------|
B|-----p10------------------------------------------------------|
G|--7-----------7------6^7--------------------------------------|
D|----------7--7-----7------------------------------------------|
A|---------5----------------------------------------------------|
E|-5------3---2----1--------------------------------------------|

...jugando con delfines en las olas empapada en

e|---8^9-7-------------12~--------------------------------------|
B|---------p10--------------------------------------------------|
G|------------------------------7-------------------------------|
D|---7----------7---7---------7------7-9------------------------|
A|--7-----------------------------------------------------------|
E|-5--------------3---------2------1----------------------------|

...amooores

e|-----8^9-7----------------------------------------------------|
B|-----------p10------------------------------------------------|
G|-------------------------7------6^7---------------------------|
D|-----7-------------7---7------7-------------------------------|
A|---7-------------5--------------------------------------------|
E|-5-------------3-----2------1---------------------------------|

...y el profundo azul llenava sus rincones y borraba sus

e|-----8^9------------------------------------------------------|
B|--------p10---------------------------------------------------|
G|----------------------7---------------------------------------|
D|-----7----------7---7-----7-9---------------------------------|
A|---7----------5-----------------------------------------------|
E|-5----------3-----2-----1-------------------------------------|

...doloores

e|---8^9-7------------------------------------------------------|
B|---------p10--------------------------------------------------|
G|-------------------------7------6^7---------------------------|
D|---7-------------7-----7------7-------------------------------|
A|--7-------------5---------------------------------------------|
E|-5-------------3------2------1--------------------------------|

...la luna le plateaba sus espaldas y su cola y sus

e|-----8^9-7-----------12~--------------------------------------|
B|-----------p10------------------------------------------------|
G|------------------------------7-------------------------------|
D|-----7---------7---7--------7------7--9-----------------------|
A|---7----------------------------------------------------------|
E|-5---------------3-------2-------1----------------------------|

....escamas

e|--------------------------------------------------------------|
B|--------------------------------------------------------------|
G|-9---9--7----7--6----6--6-----6-------------------------------|
D|---9-------7-------7-------7----------------------------------|
A|-7------5-------4-------4-------------------------------------|
E|--------------------------------------------------------------|


E                D            A/C#
vestida como un hada ella se fue
E                D/#        E/G# A
montada en un delfin ella escapo
        Bm7
y en la mar ella se hundio
E  Esus  E


F#m
de repente ella soño
C#m              D                      A   E/G#
que encontraba asu amado que nadaba asu lado
F#m
de repente ella soño
C#m                D
que sus cuerpos enlazados
              A     Bm7 E
se sumian abrazados en la mar
(LA PARTE DE LAS TRONPETAS)
e|-----8^9-7-----------------------------------------------------|
B|----------p10--------------------------------------------------|
G|-------------------------7-----6^7-----------------------------|
D|-----7------------7----7-----7---------------------------------|
A|---7------------5----------------------------------------------|
E|-5------------3------2-----1-----------------------------------|


e|----8^9-7---------------------------------7--------------------|
B|---------p10---------------------9---10------------------------|
G|---------------------7---------9---9----9----------------------|
D|----7----------7---7------7-9----------------------------------|
A|--7-----------5------------------------------------------------|
E|-5-----------3---2-----1---------------------------------------|


e|-----------9-------------9--------------10---------------------|
B|------10--------10-----9-----9----10----12-----5-----5---------|
G|---11----11--11---11----9--9---------11----------------7-------|
D|-------------------------------------------7-7---6-------------|
A|-9------------------------------------------7------7-----------|
E|---------------------9---------10------------------------------|
/////////////////////////////////////////////////////////////////

...derepente desperto y sus sueños diluidos entre azules y el olvido

e|------------9------------9-------------10----------------------|
B|-------10--------10----9----9----10----12-----5-----5----------|
G|---11-----11--11---11---9--9--------11----------------7--------|
D|------------------------------------------7--7---6-------------|
A|-9------------------------------------------7------7-----------|
E|---------------------9--------10-------------------------------|

...derepente desperto y convertida en sirena, recostada en la arena

e|-----------9--------------9--------------10--------------|
B|------10--------10-----9------9----10----12-----5-----5--|
G|---11----11--11---11----9---9---------11----------------7|
D|--------------------------------------------7-7---6------|
A|-9-------------------------------------------7------7----|
E|---------------------9----------10-----------------------|

...derepente desperto y sus sueños diluidos, entre azules y gemidos
e|------------9-----------9------------10---------------|
B|-------10-------10----9----9----10---------5----------|
G|----11----11--11--11---9--9-------11-12---------------|
D|-----------------------------------------------7--6-7-|
A|-9--------------------------------------7-7---7-7-----|
E|---------------------9-------10----------7------------|

derepente desperto convertida en sirena, recostada en la arenaen la mar

e|---8^9-7--------------------------------------|
B|--------p10-----------------------------------|
G|--------------------7-----6^7-----------------|
D|---7----------7---7-----7---------------------|
A|--7----------5--------------------------------|
E|-5----------3---2-----1-----------------------|


INTRO:
1.-----8-9-7--------------------------------|
2.-----------10-----------------------------|
3.--------------------7---6-----------------|
4.-----7----------7--7---7------------------|
5.---7-----------5--------------------------|
6.-5------------3---2---1-------------------|

1.----8-9-7---------------------------------|
2.----------10------------------------------|
3.-----------------------6-7----------------|
4.----7----------7---7--7-------------------|
5.---7----------5---7-----------------------|
6.-5-----------3---2---1--------------------|

e|---8^9-7----------------------------------|
B|---------p10------------------------------|
G|---------------------7-----6^7------------|
D|---7-----------7----7----7----------------|
A|--7-----------5---------------------------|
E|-5-----------3----2----1------------------|
==================================FIN===================
BUENO AMIGOS MAS COMPLETA INPOSIBLE OK "practiquen" CHAU.

LEANDRO_TRANSCRIPCIONES@  21/01/06
CHAU!!!!!!!!
Suggest correction
Give kudos to tab author, rate the tab!
1 2 3 4 5
comments
print report bad tab
guest
You may want to rate the tab now too:
select rating
Wanna post a correction for this tab? Suggest correction