Oops, an error
Loading. Please wait.

La Sirena Tab

version 2
version 2

Whole song

Interactive

22 views 1 this week
no commentswrite comment
1 2 3 4 5
3 more votes to show rating
add to favorites
launch autoscroll
font size
0
reset
how to read this tab
guitar tuner
×
Best way to learn
"La Sirena"
Autoscroll
slow
fast
+/-
esc
set tempo
stop
Durante casi toda la canción va así:

E-------------------|-------------|---------------|
A-------------------|-------------|---------------|
D-------------------|-------------|------12-------|
G------9------------|------9------|---------------|
B--10-----------10--|--10-----10--|--10------10---|
E---------9--7------|-------------|---------------|


E---------------|
A---------------|
D------12-------|
G---------------|
B--10------10---|
E---------------|


y hay una parte donde hace una pequeña variación:


E-------------------|-------------|---------------|
A-------------------|-------------|---------------|
D-------------------|-------------|------12-------|
G------9------------|------9------|---------------|
B--10-----------10--|--10---------|--10------10---|
E---------9--7------|---------12--|---------------|


E---------------|
A---------------|
D------12-------|
G---------------|
B--10------10---|
E---------------|


Eso durante casi toda la canción (excepto el coro)

Si tienen alguna duda, corrección, pregunta o amenaza de muerte: escríbanme.
Suggest correction
Give kudos to tab author, rate the tab!
1 2 3 4 5
comments
print report bad tab
guest
You may want to rate the tab now too:
select rating
Wanna post a correction for this tab? Suggest correction