Oops, an error
Loading. Please wait.

La Sirena Tab

version 3
version 3

Whole song

Interactive

by Maná
22 views 1 this week
no commentswrite comment
1 2 3 4 5
3 more votes to show rating
add to favorites
launch autoscroll
font size
0
reset
how to read this tab
guitar tuner
×
Best way to learn
"La Sirena"
Autoscroll
slow
fast
+/-
esc
set tempo
stop
Espero que disfruten de este tab, cogele el ritmo de la canción, 
solo afina tu guitarra como la de Sergio.
La canción está bien ordenada, parte por parte, para que no se confundan.


INTRO:2veces
e|-----8^9-7----------------------------------------------------|
B|----------p10-------------------------------------------------|
G|--------------------7---6^7-----------------------------------|
D|-----7----------7--7---7--------------------------------------|
A|---7-----------5----------------------------------------------| 
E|-5------------3---2---1---------------------------------------| 


e|----8^9-7-----------------------------------------------------|
B|---------p10--------------------------------------------------|
G|-----------------------6^7------------------------------------|
D|----7----------7---7--7---------------------------------------|
A|---7----------5---7-------------------------------------------|
E|-5-----------3---2---1----------------------------------------|

...Queria ella buscar a su amado que se fue muchas 

e|----8^9-7-----------------------------------------------------|
B|---------p10--------------------------------------------------|
G|-------------------7------------------------------------------|
D|---------------7--7---7-9-------------------------------------|
A|--7-7---------5-----------------------------------------------|
E|-5-----------3---2---1-------------------------------------------|

...olas atras

e|----8^9-7-----------------------------------|

...olas atras

e|----8^9-7-----------------------------------------------------|
B|---------p10--------------------------------------------------|
G|--------------------7----6^7----------------------------------|
D|----------------7--7---7--------------------------------------|
A|----7----------5----------------------------------------------|
E|-5------------3---2---1---------------------------------------|

...queria ella escaparse de una isla de la habana

e|---8^9-7---------12~------------------------------------------|
B|--------p10---------------------------------------------------|
G|-------------------------7------------------------------------|
D|---7--------7--7-------7-----7-9------------------------------|
A|--7-----------------------------------------------------------|
E|-5------------3------2-----1----------------------------------|
-
...tropical

e|---8^9-7------------------------------------------------------|
B|---------p10--------------------------------------------------|
G|-------------------7-----6^7----------------------------------|
D|---7-----------7--7----7--------------------------------------|
A|--7-----------5-----------------------------------------------|
E|-5-----------3---2---1----------------------------------------|

...montarse al arcoiris resbalar y asi ganar 

e|---8^9-7------------------------------------------------------|
B|--------p10---------------------------------------------------|
G|------------------7-------------------------------------------|
D|---7----------7--7----7-9-------------------------------------|
A|--7----------5------------------------------------------------|
E|-5----------3---2---1-----------------------------------------|

...su libertad

e|---8^9-7------------------------------------------------------|
B|--------p10---------------------------------------------------|
G|-----------------7---6^7--------------------------------------|
D|---7---------7--7---7-----------------------------------------|
A|--7---------5-------------------------------------------------|
E|-5---------3---2---1------------------------------------------|

...salir volando, ir nadando, alguna forma de poderlo

e|---8^9-------12~----------------------------------------------|
B|------p10-----------------------------------------------------|
G|-------------------7------------------------------------------|
D|---7-----7--7-----7---7-9-------------------------------------|
A|--7-----------------------------------------------------------|
E|-5---------3-----2---1----------------------------------------|

...encontrar

e|--------------------------------------------------------------|
B|--------------------------------------------------------------|
G|-9--9--7--7--6--6--6--6---------------------------------------|
D|---9-----7-----7-----7----------------------------------------|
A|-7-----5-----4-----4------------------------------------------|
E|--------------------------------------------------------------|

...vest----------------------|
B|-------7-9-----10--------9--10--9-----------------------------|
G|-9---9--------------7-7---------------------------------------|
D|---9-----------------7---7---9--9-----------------------------|
A|-7-----9-11-12---------7--------------------------------------|
E|--------------------------------------------------------------|

...montada en un delfin ella escapo y en la mar ella se hundio

e|---8^9-7------------------------------------------------------|
B|--------p10---------------------------------------------------|
G|---------------------7-----6^7--------------------------------|
D|---7------------7--7-----7------------------------------------|
A|--7-----------5-----------------------------------------------|
E|-5----------3-----2----1--------------------------------------|


e|-----8^9-7----------------------------------------------------|
B|---------p10--------------------------------------------------|
G|-----------------------7------------------------------------------|
G|-----------------------7--------------------------------------|
D|-----7-----------7---7-----7-9--------------------------------|
A|---7-----------5----------------------------------------------|
E|-5-----------3-----2-----1------------------------------------|


e|---8^9-7------------------------------------------------------|
B|--------p10---------------------------------------------------|
G|------------------7-----6^7-----------------------------------|
D|---7----------7--7----7---------------------------------------|
A|--7----------5------------------------------------------------|
E|-5----------3---2---1-----------------------------------------|

...nadando entre corales,caracolas y entre peces 

e|---8^9-7------------------------------------------------------|
B|--------p10---------------------------------------------------|
G|------------------7-------------------------------------------|
D|---7----------7--7----7-9-------------------------------------|
A|--7----------5------------------------------------------------|
E|-5----------3---2---1-----------------------------------------|

...de colooores

e|--8^9---------------------------------------------------------|
B|-----p10------------------------------------------------------|
G|--7-----------7------6^7--------------------------------------|
D|----------7--7-----7------------------------------------------|
A|---------5----------------------------------------------------|
E|-5------3---2----1--------------------------------------------|

...jugando con delfines en las olas empapada en 

e|---8^9-7-------------12~--------------------------------------|
B|---------p10--------------------------------------------------|
G|------------------------------7-------------------------------|
D|---7----------7---7---------7------7-9------------------------|
A|--7-----------------------------------------------------------|
E|-5--------------3---------2------1----------------------------|

...amooores

e|-----8^9-7----------------------------------------------------|
B|-----------p10------------------------------------------------|
G|-------------------------7------6^7---------------------------|
D|-----7-------------7---7------7-------------------------------|
A|---7-------------5--------------------------------------------|
E|-5-------------3-----2------1---------------------------------|

...y el profundo azul llenava sus rincones y borraba sus

e|-----8^9------------------------------------------------------|
B|--------p10---------------------------------------------------|
G|----------------------7---------------------------------------|
D|-----7----------7---7-----7-9---------------------------------|
A|---7----------5-----------------------------------------------|
E|-5----------3-----2-----1-------------------------------------|

...doloores

e|---8^9-7------------------------------------------------------|
B|---------p10--------------------------------------------------|
G|-------------------------7------6^7---------------------------|
D|---7-------------7-----7------7-------------------------------|
A|--7-------------5---------------------------------------------|
E|-5-------------3------2------1--------------------------------|

...la luna le plateaba sus espaldas y su cola y sus 

e|-----8^9-7-----------12~--------------------------------------|
B|-----------p10------------------------------------------------|
G|------------------------------7-------------------------------|
D|-----7---------7---7--------7------7--9-----------------------|
A|---7----------------------------------------------------------|
E|-5---------------3-------2-------1----------------------------|

....escamas

e|--------------------------------------------------------------|
B|--------------------------------------------------------------|
G|-9---9--7----7--6----6--6-----6-------------------------------|
D|---9-------7-------7-------7----------------------------------|
A|-7------5-------4-------4-------------------------------------|
E|--------------------------------------------------------------|

...vastida como un ada ella se fue
e|----------------9------9--------------------------------------|
B|--------7--9--------10------------9--10--9--------------------|
G|-9----9-------------------7---7-------------------------------|
D|----9-----------------------7-----7---9--9--------------------|
A|-7------9--11---12--------------7-----------------------------|
E|--------------------------------------------------------------|

...montada en un delfín ella escapo y en la mar ella se hundio
e|-----------------9-----------9------10------------------------|
B|------------10------10-----9---10---12-----5----5-------------|
G|---------11---11--11--11----9-----11--------------7-----------|
D|-6-7-----------------------------------7--7--6----------------|
A|-----9--9--------------------------------7----7-----9---------|
E|------------------------9-------------------------------------|

...derepente ella soño, que encontraba a su amado que nadaba a su lado

e|------------9--------------9-----------10----------------------|
B|------10---------10-----9-----9--10----12-----5----------------|
G|---11----11---11----11----9--9------11-------------------------|
D|------------------------------------------7-7------------------|
A|-9-----------------------------------------7-------------------|
E|----------------------9---------10-----------------------------|

...derepente ella soño que sus cuerpos enlazados se subian abrazados en la mar

e|----8^9-7------------------------------------------------------|
B|----------p10--------------------------------------------------|
G|----------------------7-----6^7--------------------------------|
D|----7-----------7---7-----7------------------------------------|
A|--7------------5-----------------------------------------------|
E|-5------------7---2-----1--------------------------------------|


e|---8^9-7-------------------------------------------------------|
B|---------p10---------------------------------------------------|
G|----------------------7----------------------------------------|
D|---7-------------7---7----7----6-------------------------------|
A|--5------------5--------7----7---------------------------------|
E|-3-----------3-----2-------------------------------------------|


e|-----8^9-7-----------------------------------------------------|
B|----------p10--------------------------------------------------|
G|-------------------------7-----6^7-----------------------------| 
D|-----7------------7----7-----7---------------------------------|
A|---7------------5----------------------------------------------|
E|-5------------3------2-----1-----------------------------------|    trompeta


e|----8^9-7---------------------------------7--------------------|
B|---------p10---------------------9---10------------------------|  
G|---------------------7---------9---9----9----------------------|
D|----7----------7---7------7-9----------------------------------|
A|--7-----------5------------------------------------------------|
E|-5-----------3---2-----1---------------------------------------|     trompeta


e|-----------9-------------9--------------10---------------------|
B|------10--------10-----9-----9----10----12-----5-----5---------|
G|---11----11--11---11----9--9---------11----------------7-------|
D|-------------------------------------------7-7---6-------------|
A|-9------------------------------------------7------7-----------|
E|---------------------9---------10------------------------------|

...derepente desperto y sus sueños diluidos entre azules y el olvido

e|------------9------------9-------------10----------------------|
B|-------10--------10----9----9----10----12-----5-----5----------|
G|---11-----11--11---11---9--9--------11----------------7--------|
D|------------------------------------------7--7---6-------------|
A|-9------------------------------------------7------7-----------|
E|---------------------9--------10-------------------------------|

...derepente desperto y convertida en sirena, recostada en la arena

e|-----------9--------------9--------------10--------------------|
B|------10--------10-----9------9----10----12-----5-----5--------|
G|---11----11--11---11----9---9---------11----------------7------|
D|--------------------------------------------7-7---6------------|
A|-9-------------------------------------------7------7----------|
E|---------------------9----------10-----------------------------|

...derepente desperto y sus sueños diluidos, entre azules y gemidos
e|------------9-----------9------------10------------------------|
B|-------10-------10----9----9----10---------5-------------------|
G|----11----11--11--11---9--9-------11-12------------------------|
D|-----------------------------------------------7--6-7----------|
A|-9--------------------------------------7-7---7-7--------------|
E|---------------------9-------10----------7---------------------|

...derepente desperto convertida en sirena, recostada en la arena, en la mar

e|---8^9-7-------------------------------------------------------|
B|--------p10----------------------------------------------------|
G|--------------------7-----6^7----------------------------------|
D|---7----------7---7-----7--------------------------------------|
A|--7----------5-------------------------------------------------|
E|-5----------3---2-----1----------------------------------------|

                        una sireenaaaa...

e|----8^9-7------------------------------------------------------|
B|---------p10---------------------------------------------------|
G|--------------------7---7-----6^7------------------------------|
D|----7----------7---7---7----7----------------------------------|
A|---7----------5------------------------------------------------|
E|-5-----------3---2----2---1------------------------------------|

...  aaaa                     en [ch]A[/ch] 

e|---8^9-7-------------------------------------------------------|
B|--------p10----------------------------------------------------|
G|-------------------7----6^7------------------------------------|
D|---7----------7---7----7---------------------------------------|
A|--7----------5-------------------------------------------------|
E|-5----------3---2----1-----------------------------------------|

...    mar                    una [ch]B[/ch]....               

e|---8^9-7-------------------------------------------------------|
B|--------p10----------------------------------------------------|
G|-------------------7-------------------------------------------|
D|---7----------7---7----7---6-----------------------------------|
A|--7----------5-------7---7-------------------------------------|
E|-5----------3---2----------------------------------------------|

  reenaaaaa...

e|---8^9-7-------------------------------------------------------|
B|---------p10---------------------------------------------------|
G|---------------------7-----6^7---------------------------------|  
D|---7-----------7----7----7-------------------------------------|             
A|--7-----------5------------------------------------------------|      
E|-5-----------3----2----1---------------------------------------|    trompeta y 
                                                        repite 5 veces


Cualquier duda me escriben,practicalo mucho. y si tienen nuevos tabs de maná mandenme 
a mi correo electronico, jualpees@ podemos intercambiar.
Esta canción la termine de transcribir un martes 6 de noviembre del 2001,
Era un dia lluvioso y gris, y desperte del mejor sueño que nunca habia tenido. Mercedes, gracias.
Suggest correction
Give kudos to tab author, rate the tab!
1 2 3 4 5
comments
print report bad tab
guest
You may want to rate the tab now too:
select rating
Wanna post a correction for this tab? Suggest correction