Oops, an error
Loading. Please wait.

Labios Compartidos Bass Tab

version 2
version 2

Whole song

258 views 1 this week
no commentswrite comment
1 2 3 4 5
3 more votes to show rating
add to favorites
launch autoscroll
font size
0
reset
guitar tuner
Autoscroll
slow
fast
+/-
esc
set tempo
stop
Help us to improve Ultimate-Guitar.com Take our survey!
×
La canción empieza hasta que dice esto es el cielo es mi cielo:

G-----------------------------15?17?15-------------------
D------------------15?17---------------------------------
A---15----18---------------------------------------------
E--------------------------------------------------------

VERSO:

G--------------------------------------------------------
D--------------------------------------------------------
A---3-3-------6-6-6-6-------8-8-8-8----------------------
E---------------------6-6--------------------------------

Slide para entrar al pre-coro:

G--------------------------------------------------------
D--------------------------------------------------------
A---3-3-------6-6-6-6-----------12?12--------------------
E---------------------6-6--------------------------------

Pre-Coro:

G--------------------------------------------------------
D----------------------------------------6-8-------------
A---------------------------6-6-6-6?-6-8-----------------
E---3-3?-3-3-3----4-4---444-----------------6-6?--6-6-6-6


Coro:

G--------------------------------------------------------
D--------------------------------------------------------
A--------------------------6-6?6-6-6-6---3-3?3-3-3-3-----
E?4-4?4-4-4-4?6-6?6-6-6-6--------------------------------

Verso

Precoro

Coro

Que me parta un rayo que me entierre el olvido miamor
Pero no puedo mas compartir tus labios compartir tus besos
Labios compartidos:

G--------------------------------------------------------
D--------------------------------------------------------
A--------------------------6-6?6-6-6-6---3-3?3-3-3-3-----
E?4-4?4-4-4-4?6-6?6-6-6-6--------------------------------

G----------------------------------------------------------
D----------------------------------------------------------
A----------------------------------------------------------
E-------4-4?4-----6-6?6------------------------------------

Bridge: se entra después del majestuoso falsete de Fher:


G-----------------------15?17?15---------------------------
D----------------15?17-------------------------------------
A---15-----18?18-------------------------------------------
E----------------------------------------------------------

Luego viene un silencio y se entra con la bateria
se hacelo mismo que en el verso nadamas que se cambia SIEMPRE
el 8 por el 2 en la cuerda E weno?eso es todo!
Ojala y la entiendan y la disfruten! MANA RULES!!!!!
Mi primer tab!! Yo dije que esta yo la iba a sacar yeah!!!
Se siente chido!!!!
Suggest correction
Give kudos to tab author, rate the tab!
1 2 3 4 5
comments
print report bad tab
guest
You may want to rate the tab now too:
select rating
Wanna post a correction for this tab? Suggest correction