Oops, an error
Loading. Please wait.

Latinoamérica Tab

version 1
version 1

Whole song

Interactive

by Maná
104 views 1 this week
no commentswrite comment
1 2 3 4 5
3 more votes to show rating
add to favorites
launch autoscroll
font size
0
reset
how to read this tab
guitar tuner
×
Best way to learn
"Latinoamérica"
Autoscroll
slow
fast
+/-
esc
set tempo
stop
intro:
e----------------------------------------------------
B----------------------------------------------------
G----------------------------------------------------
D-11-11-11-11-11-11-11-11-11-11-11-11-11-11-11-11-11-
A-9--9--9--9--9--9--9--7--7--7--7--7--7--7--7--7--7--
E-------------------------------------------9--9--9--

e--------------------------------------
B--------------------------------------
G--------------------------------------
D-11-11-11-11--11-11-11-11-11-11-11/9/-
A-7--7--7--7---7--7--7--7--7--7--7-/7/-
E-9--9--9--9---9--9--9--7--7--7--7-/7--

e----------------------------------------------------
B----------------------------------------------------
G---------------------------------------------------- guitarra 1
D-11-11-11-11-11-11-11-11-11-11-11-11-11-11-11-11-11- x2
A-9--9--9--9--9--9--9--7--7--7--7--7--7--7--7--7--7--
E-------------------------------------------9--9--9--

e--------------------------------------
B--------------------------------------
G--------------------------------------
D-11-11-11-11--11-11-11-11-11-11-11/9/-
A-7--7--7--7---7--7--7--7--7--7--7-/7/-
E-9--9--9--9---9--9--9--7--7--7--7-/7--

e-------------------
B-------------------
G----9-9----6------- guitarra 2
D-7-7----7-7-------- x2
A-------------------
E-------------------

e----------------------------------------------------
B----------------------------------------------------
G---------------------------------------------------- guitarra 1
D-11-11-11-11-11-11-11-11-11-11-11-11-11-11-11-11-11-
A-9--9--9--9--9--9--9--7--7--7--7--7--7--7--7--7--7--
E-------------------------------------------9--9--9--

e-----------------------------------------
B-----------------------------------------
G-----------------------------------------
D-11-11-11-11--11-11-11-12-12-12-12-12-12-
A-7--7--7--7---7--7--7--10-10-10-10-10-10-
E-9--9--9--9---9--9--9--10-10-10-10-10-10-

e-------------------
B-------------------
G----9-9----6-7----- guitarra 2
D-7-7----7-7--------
A-------------------
E-------------------
Alerta esto es un llamado Es valiosa su atención
e-------------------------
B-------------------------
G-6-----7--------9-9------
D--7-6-------7-7----9-----
A------9------------------
E-------------------------
Están discriminando latinos No me parece que tienen razón.
e----------------
B----------------
G-6---7----4-7-6-
D--7-6-----------
A----------------
E----------------
Somos gente que nunca se raja Ante cualquier situación
e---------------
B--7------------
G---6--9---6----
D-----9-----7-9-
A---------------
E---------------
Vamos a mostrar quienes somos Con coraje y valor.
e---------------
B--7------------
G---6--9-----6-- guitarra 1
D----7------4-9-
A---------------
E---------------

e-------------
B-------------
G-6-6-6-6-6-6-
D-6-6-6-6-6-6- guitarra 2
A-4-4-4-4-4-4-
E-------------

No vamos, no vamos A quejarnos jamás
e-----------------------------------------------
B-----------------------------------------------
G-7-7-7-7-7-7-9-9-9-9-9-9-6-6-6-6-6-6-7-7-7-7-7-
D-7-7-7-7-7-7-9-9-9-9-9-9-4-4-4-4-4-4-7-7-7-7-7-
A-5-5-5-5-5-5-7-7-7-7-7-7-4-4-4-4-4-4-5-5-5-5-5-
E-----------------------------------------------
Coro:

Latino tú, latino yo La misma sangre y corazón.
e-------------------------------------------------
B-------------------------------------------------
G-------------------------6-6-6-6-6-6-6-6-6-6-6-6- guitarra 1
D-7-7-7-7-7-7-7-7-7-7-7-7-6-6-6-6-6-6-6-6-6-6-6-6-
A-7-7-7-7-7-7-7-7-7-7-7-7-4-4-4-4-4-4-4-4-4-4-4-4-
E-5-5-5-5-5-5-5-5-5-5-5-5-------------------------

e-------------------
B------------------- guitarra 2
G-----6-----6-------
D---10----10--------
A--7---7-7----7-----
E-------------------

Esto es mi Latinoamérica Hay que luchar, Latinoamérica
e-------------------------------------------------
B-------------------------------------------------
G-7-7-7-7-7-7-7-7-7-7-7-7-------------------------
D-7-7-7-7-7-7-7-7-6-6-6-6-5-5-5-5-7-7-7-7-7-7-7-7-
A-5-5-5-5-5-5-5-5-4-4-4-4-5-5-5-5-5-5-5-5-5-5-5-5-
E-------------------------3-3-3-3-5-5-5-5-5-5-5-5-

e------------------
B------------------
G------------------
D-9-9-9-9-9-9-9-9-- guitarra 1
A-7-7-7-7-7-7-7-7--
E-7-7-7-7-7-7-7-7--

e------------------
B------------------
G---7-6----7-6----- guitarra 2
D--7----5-7---7----
A-7----------------
E------------------
Y si nos quieren marginar Nunca nos vamos a dejar
e-------------------------------------------------
B-------------------------------------------------
G-------------------------6-6-6-6-6-6-6-6-6-6-6-6- guitarra 1
D-7-7-7-7-7-7-7-7-7-7-7-7-6-6-6-6-6-6-6-6-6-6-6-6-
A-7-7-7-7-7-7-7-7-7-7-7-7-4-4-4-4-4-4-4-4-4-4-4-4-
E-5-5-5-5-5-5-5-5-5-5-5-5-------------------------

e-------------------
B------------------- guitarra 2
G-----6-----6-------
D---10----10--------
A--7---7-7----7-----
E-------------------

Sólo existe una América Hay que soñar, Latinoamérica.
e-------------------------------------------------
B-------------------------------------------------
G-7-7-7-7-7-7-7-7-7-7-7-7-------------------------
D-7-7-7-7-7-7-7-7-6-6-6-6-5-5-5-5-7-7-7-7-7-7-7-7-
A-5-5-5-5-5-5-5-5-4-4-4-4-5-5-5-5-5-5-5-5-5-5-5-5-
E-------------------------3-3-3-3-5-5-5-5-5-5-5-5-

e------------------
B------------------
G------------------
D-9-9-9-9-9-9-9-9-- guitarra 1
A-7-7-7-7-7-7-7-7--
E-7-7-7-7-7-7-7-7--

e-------------
B-------------
G------------- guitarra 2
D---9-7------- esto lo hace al final
A-------------
E-------------

e----------------------------------------------------
B----------------------------------------------------
G---------------------------------------------------- guitarra 1
D-11-11-11-11-11-11-11-11-11-11-11-11-11-11-11-11-11-
A-9--9--9--9--9--9--9--7--7--7--7--7--7--7--7--7--7--
E-------------------------------------------9--9--9--

e--------------------------------------
B--------------------------------------
G--------------------------------------
D-11-11-11-11--11-11-11-11-11-11-11/9/-
A-7--7--7--7---7--7--7--7--7--7--7-/7/-
E-9--9--9--9---9--9--9--7--7--7--7-/7--

e-------------------
B-------------------
G----9-9----6------- guitarra 2
D-7-7----7-7--------
A-------------------
E-------------------

e----------------------------------------------------
B----------------------------------------------------
G---------------------------------------------------- guitarra 1
D-11-11-11-11-11-11-11-11-11-11-11-11-11-11-11-11-11-
A-9--9--9--9--9--9--9--7--7--7--7--7--7--7--7--7--7--
E-------------------------------------------9--9--9--

e-----------------------------------------
B-----------------------------------------
G-----------------------------------------
D-11-11-11-11--11-11-11-12-12-12-12-12-12-
A-7--7--7--7---7--7--7--10-10-10-10-10-10-
E-9--9--9--9---9--9--9--10-10-10-10-10-10-

e-------------------
B-------------------
G----9-9----6-7----- guitarra 2
D-7-7----7-7--------
A-------------------
E-------------------
Si no aprendemos de nuestra historia No habrá forma de progresar
e-------------------------
B-------------------------
G-6-----7--------9-9------
D--7-6-------7-7----9-----
A------9------------------
E-------------------------
Cometeremos los mismos errores
Atrasados nos vamos a quedar
e----------------
B----------------
G-6---7----4-7-6-
D--7-6-----------
A----------------
E----------------
Ahora es nuestro momento De brillar como el Sol
e---------------
B--7------------
G---6--9---6----
D-----9-----7-9-
A---------------
E---------------
Tenemos todo para hacerlo Con cojones, dignidad y valor.
e---------------
B--7------------
G---6--9-----6-- guitarra 1
D----7------4-9-
A---------------
E---------------

e-------------
B-------------
G-6-6-6-6-6-6-
D-6-6-6-6-6-6- guitarra 2
A-4-4-4-4-4-4-
E-------------
No vamos, no vamos A quejarnos jamás
e-----------------------------------------------
B-----------------------------------------------
G-7-7-7-7-7-7-9-9-9-9-9-9-6-6-6-6-6-6-7-7-7-7-7-
D-7-7-7-7-7-7-9-9-9-9-9-9-4-4-4-4-4-4-7-7-7-7-7-
A-5-5-5-5-5-5-7-7-7-7-7-7-4-4-4-4-4-4-5-5-5-5-5-
E-----------------------------------------------
Coro:

Latino tú, latino yo La misma sangre y corazón.
e-------------------------------------------------
B-------------------------------------------------
G-------------------------6-6-6-6-6-6-6-6-6-6-6-6- guitarra 1
D-7-7-7-7-7-7-7-7-7-7-7-7-6-6-6-6-6-6-6-6-6-6-6-6-
A-7-7-7-7-7-7-7-7-7-7-7-7-4-4-4-4-4-4-4-4-4-4-4-4-
E-5-5-5-5-5-5-5-5-5-5-5-5-------------------------

e-------------------
B------------------- guitarra 2
G-----6-----6-------
D---10----10--------
A--7---7-7----7-----
E-------------------

Esto es mi Latinoamérica Hay que luchar, Latinoamérica
e-------------------------------------------------
B-------------------------------------------------
G-7-7-7-7-7-7-7-7-7-7-7-7-------------------------
D-7-7-7-7-7-7-7-7-6-6-6-6-5-5-5-5-7-7-7-7-7-7-7-7-
A-5-5-5-5-5-5-5-5-4-4-4-4-5-5-5-5-5-5-5-5-5-5-5-5-
E-------------------------3-3-3-3-5-5-5-5-5-5-5-5-

e------------------
B------------------
G------------------
D-9-9-9-9-9-9-9-9-- guitarra 1
A-7-7-7-7-7-7-7-7--
E-7-7-7-7-7-7-7-7--

e------------------
B------------------
G---7-6----7-6----- guitarra 2
D--7----5-7---7----
A-7----------------
E------------------
Y si nos quieren marginar Nunca nos vamos a dejar
e-------------------------------------------------
B-------------------------------------------------
G-------------------------6-6-6-6-6-6-6-6-6-6-6-6- guitarra 1
D-7-7-7-7-7-7-7-7-7-7-7-7-6-6-6-6-6-6-6-6-6-6-6-6-
A-7-7-7-7-7-7-7-7-7-7-7-7-4-4-4-4-4-4-4-4-4-4-4-4-
E-5-5-5-5-5-5-5-5-5-5-5-5-------------------------

e-------------------
B------------------- guitarra 2
G-----6-----6-------
D---10----10--------
A--7---7-7----7-----
E-------------------

Sólo existe una América Hay que soñar, Latinoamérica.
e-------------------------------------------------
B-------------------------------------------------
G-7-7-7-7-7-7-7-7-7-7-7-7-------------------------
D-7-7-7-7-7-7-7-7-6-6-6-6-5-5-5-5-7-7-7-7-7-7-7-7-
A-5-5-5-5-5-5-5-5-4-4-4-4-5-5-5-5-5-5-5-5-5-5-5-5-
E-------------------------3-3-3-3-5-5-5-5-5-5-5-5-

e------------------
B------------------
G------------------
D-9-9-9-9-9-9-9-9-- guitarra 1
A-7-7-7-7-7-7-7-7--
E-7-7-7-7-7-7-7-7--

e-------------
B-------------
G------------- guitarra 2
D---9-7------- esto lo hace al final
A-------------
E-------------

e-------------------------------------------------------------
B-------------------------------------------------------------
G-------------------------------------------------------------
D-9-11-11-9-11-9-11--11-11-9-11-9--11-11-11-9-11-9-11-11-11-9-
A-9-11-11-9-11-9-11--11-11-9-11-9--11-11-11-9-11-9-11-11-11-9-
E-7-9--9--7-9--7-9---9--9--7-9--7--9--9--9--7-9--7-9--9--9--7-

e------------------------------------
B------------------------------------
G------------------------------------
D-11-9-11-11-11-9-11-9-11-11-9-11-9--
A-11-9-11-11-11-9-11-9-11-11-9-11-9--
E-9--7-9--9--9--7-9--7-9--9--7-9--7--

e---------------------------------
B------------------------------10-
G-9-11-11-9-11-9-11-11-11-9-11-9--
D-9-11-11-9-11-9-11-11-11-9-11-7--
A-7-9--9--7-9--7-9--9--9--7-9-----
E---------------------------------

SOLO:

e-------------------------------------------------------------
B-------------------------------------------------------------
G-------------------------------------------------------------
D-9-11-11-9-11-9-11--11-11-9-11-9--11-11-11-9-11-9-11-11-11-9-
A-9-11-11-9-11-9-11--11-11-9-11-9--11-11-11-9-11-9-11-11-11-9-
E-7-9--9--7-9--7-9---9--9--7-9--7--9--9--9--7-9--7-9--9--9--7-

e------------------------------------
B------------------------------------
G------------------------------------
D-11-9-11-11-11-9-11-9-11-11-9-11-9--
A-11-9-11-11-11-9-11-9-11-11-9-11-9--
E-9--7-9--9--9--7-9--7-9--9--7-9--7--

e---------------------------------
B------------------------------10-
G-9-11-11-9-11-9-11-11-11-9-11-9-- guitarra 1
D-9-11-11-9-11-9-11-11-11-9-11-7--
A-7-9--9--7-9--7-9--9--9--7-9-----
E---------------------------------

e-------------------------------------------------------
B-------------------------------------------------------
G-/999999999999999999-11-11-11-11-11-11-99999-444444444- guitar
D------------------------------------------------------- 2
A------------------------------------------------------- rapido
E-------------------------------------------------------

e------------------------
B------------------------
G-66666777776666644444---
D------------------------
A------------------------
E------------------------

e---------------------------------
B------------------------------10-
G-9-11-11-9-11-9-11-11-11-9-11-9--
D-9-11-11-9-11-9-11-11-11-9-11-7-- (las dos guitarra terminan
A-7-9--9--7-9--7-9--9--9--7-9-----  en este riff)
E---------------------------------
 (luego esto)
e--------------------------------------------------
B--------------------------------------------------
G-------------------------------------------------- guitarra 1
D-11-11-11-11-11-11-11-11--------------------------
A-9--9--9--9--9--9--9--9--12-12-12-12-12-12-12-12--
E-------------------------10-10-10-10-10-10-10-10--

e---------------------------------
B---------------------------------
G---------------------------------
D-----------------9-9-9-9-9-9-9-9-
A-7-7-7-7-7-7-7-7-7-7-7-7-7-7-7-7-
E-5-5-5-5-5-5-5-5-----------------

e-------------------
B-7-7-7---7-7--5---
G------6--------6-- guitarra 2
D-------------------
A-------------------
E-------------------
Jamás se te olviden tus raíces
e--------------------------------------------------
B-------------------------------------------------- guitarra 1
G--------------------------------------------------
D-11-11-11-11-11-11-11-11--------------------------
A-9--9--9--9--9--9--9--9--12-12-12-12-12-12-12-12--
E-------------------------10-10-10-10-10-10-10-10--

e---------------------------------
B---------------------------------
G---------------------------------
D-----------------9-9-9-9-9-9-9-9-
A-7-7-7-7-7-7-7-7-7-7-7-7-7-7-7-7-
E-5-5-5-5-5-5-5-5-----------------

e-------------------
B-7-7-7---7-7--5---
G------6--------6-- guitarra 2
D-------------------
A-------------------
E-------------------
Jamás se te olviden tus raíces
e--------------------------------------------------
B--------------------------------------------------
G-------------------------------------------------- guitarra 1
D-11-11-11-11-11-11-11-11--------------------------
A-9--9--9--9--9--9--9--9--12-12-12-12-12-12-12-12--
E-------------------------10-10-10-10-10-10-10-10--

e-----------------------------------
B-----------------------------------
G-----------------------------------
D-----------------------------------
A-7-7-7-7-7-7-7-7-7-7-7-7-----------
E-5-5-5-5-5-5-5-5-4-4-4-4-4-5-4-0-2-

e-------------------
B-7-7-7---7-7--5---
G------6--------6-- guitarra 2
D-------------------
A-------------------
E-------------------
Jamás se te olviden tus raíces
e--------------------------------------------------
B--------------------------------------------------
G-------------------------------------------------- guitarra 1
D-11-11-11-11-11-11-11-11--------------------------
A-9--9--9--9--9--9--9--9--12-12-12-12-12-12-12-12--
E-------------------------10-10-10-10-10-10-10-10--

e-----------------------------------
B-----------------------------------
G-----------------------------------
D-----------------------------------
A-7-7-7-7-7-7-7-7-7-7-7-7-----------
E-5-5-5-5-5-5-5-5-4-4-4-4-4-5-4-0-2-

e-------------------
B-7-7-7---7-7--5----
G------6--------6--- guitarra 2
D-------------------
A-------------------
E-------------------
Jamás se te olviden tus raíces.
e--------------------------------------------------
B--------------------------------------------------
G-------------------------------------------------- guitarra 1
D-11-11-11-11-11-11-11-11--------------------------
A-9--9--9--9--9--9--9--9--12-12-12-12-12-12-12-12--
E-------------------------10-10-10-10-10-10-10-10--

e-------------------------------------------
B-------------------------------------------
G---------------------------------9-9-9-9---
D---------------------------------9-9-9-9-9-
A-7-7-7-7-7-7-7-7-7-7-7-7---------7-7-7-7-7-
E-5-5-5-5-5-5-5-5-4-4-4-4-4-5-4-0---------7-

e-------------------
B-7-7-7---7-7--5----
G------6--------6--- guitarra 2
D-------------------
A-------------------
E-------------------
Coro:

Latino tú, latino yo La misma sangre y corazón.
e-------------------------------------------------
B-------------------------------------------------
G-------------------------6-6-6-6-6-6-6-6-6-6-6-6- guitarra 1
D-7-7-7-7-7-7-7-7-7-7-7-7-6-6-6-6-6-6-6-6-6-6-6-6-
A-7-7-7-7-7-7-7-7-7-7-7-7-4-4-4-4-4-4-4-4-4-4-4-4-
E-5-5-5-5-5-5-5-5-5-5-5-5-------------------------

e-------------------
B------------------- guitarra 2
G-----6-----6-------
D---10----10--------
A--7---7-7----7-----
E-------------------

Esto es mi Latinoamérica Hay que luchar, Latinoamérica
e-------------------------------------------------
B-------------------------------------------------
G-7-7-7-7-7-7-7-7-7-7-7-7-------------------------
D-7-7-7-7-7-7-7-7-6-6-6-6-5-5-5-5-7-7-7-7-7-7-7-7-
A-5-5-5-5-5-5-5-5-4-4-4-4-5-5-5-5-5-5-5-5-5-5-5-5-
E-------------------------3-3-3-3-5-5-5-5-5-5-5-5-

e------------------
B------------------
G------------------
D-9-9-9-9-9-9-9-9-- guitarra 1
A-7-7-7-7-7-7-7-7--
E-7-7-7-7-7-7-7-7--

e------------------
B------------------
G---7-6----7-6----- guitarra 2
D--7----5-7---7----
A-7----------------
E------------------
Y si nos quieren marginar Nunca nos vamos a dejar
e-------------------------------------------------
B-------------------------------------------------
G-------------------------6-6-6-6-6-6-6-6-6-6-6-6- guitarra 1
D-7-7-7-7-7-7-7-7-7-7-7-7-6-6-6-6-6-6-6-6-6-6-6-6-
A-7-7-7-7-7-7-7-7-7-7-7-7-4-4-4-4-4-4-4-4-4-4-4-4-
E-5-5-5-5-5-5-5-5-5-5-5-5-------------------------

e-------------------
B------------------- guitarra 2
G-----6-----6-------
D---10----10--------
A--7---7-7----7-----
E-------------------

Sólo existe una América Hay que soñar, Latinoamérica.
e-------------------------------------------------
B-------------------------------------------------
G-7-7-7-7-7-7-7-7-7-7-7-7-------------------------
D-7-7-7-7-7-7-7-7-6-6-6-6-5-5-5-5-7-7-7-7-7-7-7-7-
A-5-5-5-5-5-5-5-5-4-4-4-4-5-5-5-5-5-5-5-5-5-5-5-5-
E-------------------------3-3-3-3-5-5-5-5-5-5-5-5-

e------------------
B------------------
G------------------
D-9-9-9-9-9-9-9-9-- guitarra 1
A-7-7-7-7-7-7-7-7--
E-7-7-7-7-7-7-7-7--

e-------------
B-------------
G------------- guitarra 2
D---9-7------- esto lo hace al final
A-------------
E-------------
eeeeeh ehhhhhhhh ehhhhhhh
e--------------------------------------------------
B--------------------------------------------------
G-------------------------------------------------- guitarra 1
D-11-11-11-11-11-11-11-11-------------------------- con mas intensidad
A-9--9--9--9--9--9--9--9--12-12-12-12-12-12-12-12--
E-------------------------10-10-10-10-10-10-10-10--

e-------------------------------------
B-------------------------------------
G-------------------------------------
D-------------------------------------
A-7-7-7-7-7-7-7-7-7-7-7-7-------------
E-5-5-5-5-5-5-5-5-4-4-4-4-4-5-4-0-----

Jamás se te olviden tus raíces (Jamas jamas nunca)
e--------------------------------------------------
B-------------------------------------------------- guitarra 1
G--------------------------------------------------
D-11-11-11-11-11-11-11-11--------------------------
A-9--9--9--9--9--9--9--9--12-12-12-12-12-12-12-12--
E-------------------------10-10-10-10-10-10-10-10--

e---------------------------------
B---------------------------------
G---------------------------------
D-----------------9-9-9-9-9-9-9-9-
A-7-7-7-7-7-7-7-7-7-7-7-7-7-7-7-7-
E-5-5-5-5-5-5-5-5-----------------

e----4-5-4-5-7-4----
B---7---------------
G------------------- guitarra 2
D-------------------
A-------------------
E-------------------


Jamás se te olviden tus raíces (vamos mi gente no nos vamos a rajar)
e--------------------------------------------------
B-------------------------------------------------- guitarra 1
G--------------------------------------------------
D-11-11-11-11-11-11-11-11--------------------------
A-9--9--9--9--9--9--9--9--12-12-12-12-12-12-12-12--
E-------------------------10-10-10-10-10-10-10-10--

e---------------------------------
B---------------------------------
G---------------------------------
D-----------------9-9-9-9-9-9-9-9-
A-7-7-7-7-7-7-7-7-7-7-7-7-7-7-7-7-
E-5-5-5-5-5-5-5-5-----------------

e----4-5-4-5-7-4----
B---7---------------
G------------------- guitarra 2
D-------------------
A-------------------
E-------------------
Jamás se te olviden tus raíces (no te rindas latinoanerica)
e--------------------------------------------------
B-------------------------------------------------- guitarra 1
G--------------------------------------------------
D-11-11-11-11-11-11-11-11--------------------------
A-9--9--9--9--9--9--9--9--12-12-12-12-12-12-12-12--
E-------------------------10-10-10-10-10-10-10-10--

e---------------------------------
B---------------------------------
G---------------------------------
D-----------------9-9-9-9-9-9-9-9-
A-7-7-7-7-7-7-7-7-7-7-7-7-7-7-7-7-
E-5-5-5-5-5-5-5-5-----------------

e----4-5-4-5-7-4----
B---7---------------
G-------------------
D------------------- guitarra 2
A-------------------
E-------------------
Jamás se te olviden tus raíces (hay que echar pa´ delante)
e--------------------------------------------------
B-------------------------------------------------- guitarra 1
G--------------------------------------------------
D-11-11-11-11-11-11-11-11--------------------------
A-9--9--9--9--9--9--9--9--12-12-12-12-12-12-12-12--
E-------------------------10-10-10-10-10-10-10-10--

e---------------------------------
B---------------------------------
G---------------------------------
D-----------------9-9-9-9-9-9-9-9-
A-7-7-7-7-7-7-7-7-7-7-7-7-7-7-7-7-
E-5-5-5-5-5-5-5-5-----------------

e----4-5-4-5-7-4----
B---7---------------
G------------------- guitarra 2
D-------------------
A-------------------
E-------------------
hay que luchar latinoamerica hay que soñar latinoamerica
e--------------------------------------------------
B-------------------------------------------------- guitarra 1
G--------------------------------------------------
D-11-11-11-11-11-11-11-11--------------------------
A-9--9--9--9--9--9--9--9--12-12-12-12-12-12-12-12--
E-------------------------10-10-10-10-10-10-10-10--

e---------------------------------
B---------------------------------
G---------------------------------
D-----------------9-9-9-9-9-9-9-9-
A-7-7-7-7-7-7-7-7-7-7-7-7-7-7-7-7-
E-5-5-5-5-5-5-5-5-----------------

e----4-5-4-5-7-4----
B---7---------------
G-------------------
D------------------- guitarra 2
A-------------------
E-------------------
hay que pensar latinoamerica hay lograr latinoamerica
e--------------------------------------------------
B-------------------------------------------------- guitarra 1
G--------------------------------------------------
D-11-11-11-11-11-11-11-11--------------------------
A-9--9--9--9--9--9--9--9--12-12-12-12-12-12-12-12--
E-------------------------10-10-10-10-10-10-10-10--

e---------------------------------
B---------------------------------
G---------------------------------
D-----------------9-9-9-9-9-9-9-9-
A-7-7-7-7-7-7-7-7-7-7-7-7-7-7-7-7-
E-5-5-5-5-5-5-5-5-----------------

e----4-5-4-5-7-4----
B---7---------------
G------------------- guitarra 2
D-------------------
A-------------------
E-------------------

e--------------------------------------------------
B-------------------------------------------------- guitarra 1
G--------------------------------------------------
D-11-11-11-11-11-11-11-11--------------------------
A-9--9--9--9--9--9--9--9--12-12-12-12-12-12-12-12--
E-------------------------10-10-10-10-10-10-10-10--

e---------------------------------
B---------------------------------
G---------------------------------
D-----------------9-9-9-9-9-9-9-9-
A-7-7-7-7-7-7-7-7-7-7-7-7-7-7-7-7-
E-5-5-5-5-5-5-5-5-----------------

e----4-5-4-5-7-4----
B---7---------------
G-------------------
D------------------- guitarra 2
A-------------------
E-------------------

e--------------------------------------------------
B-------------------------------------------------- guitarra 1
G--------------------------------------------------
D-11-11-11-11-11-11-11-11--------------------------
A-9--9--9--9--9--9--9--9--12-12-12-12-12-12-12-12--
E-------------------------10-10-10-10-10-10-10-10--

e---------------------------------
B---------------------------------
G---------------------------------
D-----------------9-9-9-9-9-9-9-9-
A-7-7-7-7-7-7-7-7-7-7-7-7-7-7-7-7-
E-5-5-5-5-5-5-5-5-----------------

e----4-5-4-5-7-4-5---
B---7-------------7--
G-------------------- guitarra 2
D--------------------
A--------------------
E--------------------

(ahora ase unsonido de ruido con la guitarra)
Suggest correction
Give kudos to tab author, rate the tab!
1 2 3 4 5
comments
print report bad tab
guest
You may want to rate the tab now too:
select rating
Wanna post a correction for this tab? Suggest correction