Oops, an error
Loading. Please wait.

Lluvía Al Corazón Tab

version 1
version 1

Whole song

Interactive

72 views 1 this week
no commentswrite comment
1 2 3 4 5
3 more votes to show rating
add to favorites
launch autoscroll
font size
0
reset
how to read this tab
guitar tuner
×
Best way to learn
"Lluvía Al Corazón"
Autoscroll
slow
fast
+/-
esc
set tempo
stop
Hola a todos aqui esta la transcripcion de lluvia al corazon.

Intro:

e|--------------------------------|----------------------|
b|--------------------------------|----------------------|
g|--------------------------------|----------------------|
D|--11-11-11-11-11-11-11-11-11-11-|-7-7-7-7-7-7-7-7-7-7--|
A|--9--9--9--9--9--9--9--9--9--9--|-5-5-5-5-5-5-5-5-5-5--|
E|--------------------------------|----------------------|


e|-----------------------|-----------------------|
b|-----------------------|-----------------------|
g|-----------------------|-----------------------|
D|--9-9-9-9-9-9-9-9-9-9--|--6-6-6-6-6-6-6-6-6-6--|
A|--7-7-7-7-7-7-7-7-7-7--|--4-4-4-4-4-4-4-4-4-4--|
E|-----------------------|-----------------------|

El intro se repite durante los versos.

F#m                  D
Por que lloras mi amor
                     E
Que te fluye en la piel
                      C#m
Te despiertas en el llanto
                    F#m
Con espantos de dolor

                        D
Son los monstruos del ayer
                     E
Son tus miedos corazon
                      C#m
Sabes bien que yo te amo
                  F#m
Y te pido tengas fe

En esta parte de la cancion se llega apreciar
un sonido de guitarra muy leve, es un pequeño punteo
que va asi:

e|---5-------7--4-----5-----7--4------------|
b|-----------------5--------------5/7--7/9--|
           D            E
No sufras mas, no mi bebe
             C#m
Eres la mariposa
                        F#m
Que vuela hacia el huracan
                  D
Cuéntame de tu pesar
                  E          C#m
Suelta todo tu dolor, dimelo

Durante el precoro la guitarra hace
la siguiente figura solo oye bien la cancion
para agarrar ritmo y tiempo.

e|--10-x--10-x-10-x-10-x-10-x-10-x-10-x-10-x-10-x-10-|
b|--7--x--7--x-7--x-7--x-7--x-7--x-7--x-7--x-7--x-7--|
g|--7--x--7--x-7--x-7--x-7--x-7--x-7--x-7--x-7--x-7--|

e|--13-x--13-x--13--x--13--x--12-12--|
b|--10-x--10-x--10--x--10--x--9--9---|
g|--10-x--10-x--10--x--10--x--9--9---|

e|--10-x--10-x-10-x-10-x-10-x-10-x-10-x-10-x-10-x-10-|
b|--7--x--7--x-7--x-7--x-7--x-7--x-7--x-7--x-7--x-7--|
g|--7--x--7--x-7--x-7--x-7--x-7--x-7--x-7--x-7--x-7--|

e|-13-x-13-x-13-x-13-x-12-x-12-x-12-x-12-13-13-13-13-13-13--12-|
b|-10-x-10-x-10-x-10-x-9--x-9--x-9--x-9--10-10-10-10-10-10--9--|
g|-10-x-10-x-10-x-10-x-9--x-9--x-9--x-9--10-10-10-10-10-10--9--|


    F#m     D
Aaaaaaaaa amor
        E             C#m
Un huracan y una mariposa
         F#m
Llegan se dan la cara
     D          E
En medio de la mar

El siguiente riff va durante el coro:

b|----------5---------5---------7---------9--|
g|--4--6--4---4--6--4---4--6--4---4--6--4----|

y asi: termina

b|----------5---------5---------7---7--5------|
g|--4--6--4---4--6--4---4--6--4---6--6----4---|

A              F#m
Lluvia de esperanza
 D             E
Lluvia al corazón
A
Siempre ahi estare
     F#m
No te fallare
          D                  E
Desde el cielo lluvia al corazon
            A             F#m
Sol que lanza la esperanza
        D            E
La esperanza y la luz
                   A
No importa lo que pase
             F#m          D
No importa jamas, no, no
 E              A
Lluvia al corazon

INTRO.

e|--------------------------------|----------------------|
b|--------------------------------|----------------------|
g|--------------------------------|----------------------|
D|--11-11-11-11-11-11-11-11-11-11-|-7-7-7-7-7-7-7-7-7-7--|
A|--9--9--9--9--9--9--9--9--9--9--|-5-5-5-5-5-5-5-5-5-5--|
E|--------------------------------|----------------------|


e|-----------------------|-----------------------|
b|-----------------------|-----------------------|
g|-----------------------|-----------------------|
D|--9-9-9-9-9-9-9-9-9-9--|--6-6-6-6-6-6-6-6-6-6--|
A|--7-7-7-7-7-7-7-7-7-7--|--4-4-4-4-4-4-4-4-4-4--|
E|-----------------------|-----------------------|

solo en este verso se oye de nuevo este riff:

e|---5-------7--4-----5-----7--4---|
b|-----------------5---------------|

F#m              D
Fluye la desilusion
                E
Muda desesperacion
                 C#m
Pero todo tiene alivio
                 F#m
Menos el decir adios

(EN ESTA PARTE SE ACABA EL RIFF ANTERIOR.)

         D              E
Y si te vas, asi, yo morire
                   C#m
Y te amarras a tu piano
                 F#m
Y te vas al altamar
                  D
Y te quieres escapar
                E
Y te quieres diluir
          C#m
No mi amor


Vuelve a hacer la misma figura durante el precoro.

e|--10-x--10-x-10-x-10-x-10-x-10-x-10-x-10-x-10-x-10-|
b|--7--x--7--x-7--x-7--x-7--x-7--x-7--x-7--x-7--x-7--|
g|--7--x--7--x-7--x-7--x-7--x-7--x-7--x-7--x-7--x-7--|

e|--13-x--13-x--13--x--13--x--12-12--|
b|--10-x--10-x--10--x--10--x--9--9---|
g|--10-x--10-x--10--x--10--x--9--9---|

e|--10-x--10-x-10-x-10-x-10-x-10-x-10-x-10-x-10-x-10-|
b|--7--x--7--x-7--x-7--x-7--x-7--x-7--x-7--x-7--x-7--|
g|--7--x--7--x-7--x-7--x-7--x-7--x-7--x-7--x-7--x-7--|

e|-13-x-13-x-13-x-13-x-12-x-12-x-12-x-12-13-13-13-13-13-13--12-|
b|-10-x-10-x-10-x-10-x-9--x-9--x-9--x-9--10-10-10-10-10-10--9--|
g|-10-x-10-x-10-x-10-x-9--x-9--x-9--x-9--10-10-10-10-10-10--9--|

     F#m     D
Aaaaaaaaa amor
        E             C#m
Un huracan y una mariposa
         F#m
Llegan se dan la cara
     D          E
En medio de la mar

EL MISMO RIFF DURANTE EL CORO

b|----------5---------5---------7---------9--|
g|--4--6--4---4--6--4---4--6--4---4--6--4----|


b|----------5---------5---------7---7--5------|
g|--4--6--4---4--6--4---4--6--4---6--6----4---|


A              F#m
Lluvia de esperanza
 D             E
Lluvia al corazon
A
Siempre ahi estara
     F#m
No te fallare
          D                  E
Desde el cielo lluvia al corazon
            A             F#m
Sol que lanza la esperanza
        D            E
La esperanza y la luz
                   A
No importa lo que pase
             F#m          D
No importa jamas, no, no
 E              A
Lluvia al corazon

SOLO:

e|-------------------------------------------------|
b|-------------------------------------------------|
g|-------------------------------------------------|
D|-------------------------------------------------| x2
A|--0--2--4-----5--4--2--4--2---0--2--4---5--4/7---|
E|-----------2--------------------------2----------|

A                 F#m
oooohooohooohooohhhh
        D             E
La esperanza al corazon
A                 F#m
oooohooohooohooohhhh
        D             E
La esperanza al corazón
A                 F#m
oooohooohooohooohhhh
        D                       E
Que te sane que te alivie el dolor
                   A
No importa lo que pase
             F#m         D
No importa jamas, no, no
 E              A
Lluvia al corazon

Y DURANTE ESTA PARTE SE SIGUE EL RIFF DE LOS COROS ANTERIORES
Y ESO ES TODO
Suggest correction
Give kudos to tab author, rate the tab!
1 2 3 4 5
comments
print report bad tab
guest
You may want to rate the tab now too:
select rating
Wanna post a correction for this tab? Suggest correction