Oops, an error
Loading. Please wait.

Maeo Bass Tab

23 views 1 this week
no commentswrite comment
1 2 3 4 5
3 more votes to show rating
add to favorites
launch autoscroll
font size
0
reset
guitar tuner
Autoscroll
slow
fast
+/-
esc
set tempo
stop
Help us to improve Ultimate-Guitar.com Take our survey!
×
Verso
G|-----------------------------------------|
D|--------2--------------------------------|
A|--3---3---3-2----------3------------2----| x5
E|-----------------5---5---5----3-3-3---3--|

Coro
G|-------------------------------------------------|
D|-------------------------------------------------|
A|---------3--------------------------------7/6----| x2
E|--1----1------3-3-3-3----3--4--1----1---------5--|

Pos-Coro
G|-----------------------------------------------------------------------------|
D|--------2--------------------------------------------------------------------|
A|--3---3---3-2-----------3---7----------2--------2------------4--------4-4----|
E|-----------------5-5--5---5------3-3-3---3----3---3----5-5-5---5----5-----5--|

G|--------------------------------------------------------|
D|--------2-----------------------------------------------|
A|--3---3---3-2-----------3---7----------2----------------|
E|-----------------5-5--5---5------3-3-3---3----5~----5~--|

[Verso] x4
[Coro] x2

Pos-Coro 2
G|-----------------------------------------------------------------------------|
D|--------2--------------------------------------------------------------------|
A|--3---3---3-2-----------3---7----------2--------2------------4--------4-4----|
E|-----------------5-5--5---5------3-3-3---3----3---3----5-5-5---5----5-----5--|

G|------------------------------------------------------------------|
D|--------2---------------------------------------------------------|
A|--3---3---3-2-----------3---7----------2--------2------------4----|
E|-----------------5-5--5---5------3-3-3---3----3---3----5-5-5---5--|

Final
G|-------|-----------------------------------------------------------------------------|
D|-------|--------2--------------------------------------------------------------------|
A|--9/3--|--3---3---3-2-----------3---7----------2--------2------------4--------4-4----|
E|-------|-----------------5-5--5---5------3-3-3---3----3---3----5-5-5---5----5-----5--|
	  Se toca esto hasta acabar la cancion.

* Por ahi hay arreglos, aveces le mete o le quita notas, ahi esuchenla y sabran a que 
me refiero, pero como quiera asi se oye bien.
Suggest correction
Give kudos to tab author, rate the tab!
1 2 3 4 5
comments
print report bad tab
guest
You may want to rate the tab now too:
select rating
Wanna post a correction for this tab? Suggest correction