Oops, an error
Loading. Please wait.

Manda Una Señal Tab

version 2
version 2

Whole song

Interactive

178 views 3 this week
no commentswrite comment
1 2 3 4 5
3 more votes to show rating
add to favorites
launch autoscroll
font size
0
reset
how to read this tab
guitar tuner
Autoscroll
slow
fast
+/-
esc
set tempo
stop
Help us to improve Ultimate-Guitar.com Take our survey!
×
Intro:
C G Am G

e|---3---3---3---3---5---5---3---3---|
b|---5---5---3---3---5---5---3---3---|
g|---5---5---4---4---5---5---4---4---|
d|---5---5---5---5---7---7---5---5---|
a|xxx-xxx-xxx-xxx-xxx-xxx-xxx-xxx-xxx|
e|xxx-xxx-xxx-xxx-xxx-xxx-xxx-xxx-xxx|

    C
Te quiero si te quiero
    G                            Am     G
voy andando como fiera tras tus pies amor
    C                     G
Te veo y te deseo pero tu
                                  Am   G
tienes tu dueño y no te puedes safar

    Am       G        C
Los dias se pasan sin ti
     Am         G        C
Las noches se alargan sin ti
      Dm              G
Sin tu amor sin tus besos

  C                  Am                       Em   G
Ay si tuvieras libertad a tu lado yo estaria amor

e------------------------------------
b------------------------------------
g----9----7----9-------9---7---9-----
d-10---10---10---10--7---7---7---7---
a------------------------------------
e------------------------------------

e----------------------------------------
b----------------------------------------
g----9---7---5--------12----10----9------
d--9---9---9---9---12----12----12---12---
a----------------------------------------
e----------------------------------------

  C                  Am                       Em   G
Hey dame dame una señal cuando seas libre mi amor

e------------------------------------
b------------------------------------
g----9----7----9-------9---7---9-----
d-10---10---10---10--7---7---7---7---
a------------------------------------
e------------------------------------

e----------------------------------------
b----------------------------------------
g----9---7---5--------12----10----9------
d--9---9---9---9---12----12----12---12---
a----------------------------------------
e----------------------------------------


F                   C    G                  Am
Hay yo no puedo soportar no me quiero derrumbar

e-----------------0---------3-----------0------
b------6--------1---1-----3---3-------1--------
g----5---5----0---------0-----------2----------
d--3------------------------------2------------
a----------------------------------------------
e----------------------------------------------


F                      C     G                  Am
Mandame un mensaje una señal manda una señal de amor

e-----------------0---------3-----------0------
b------6--------1---1-----3---3-------1--------
g----5---5----0---------0-----------2----------
d--3------------------------------2------------
a----------------------------------------------
e----------------------------------------------

Em              Am
manda una señal amor

e--------0--------0-----
b------0--------1-------
g----0--------2---------
d--2--------2-----------
a-----------------------
e-----------------------

C G Am G

e--------5-/-----------/------------/
B----------/--------8--/------------/
G--5-------/-----5-----/---------5--/
D-----7----/--7--------/------5-----/
A----------/-----------/---7--------/
E----------/-----------/------------/

           C                          G                    Am
e-------/--10h12--12--12--10--8----/--10--12--10-----------10--/
B--8--8-/--------------------------/--------------------------/
G-------/--------------------------/---------------12--9------/
D-------/--------------------------/--------------------------/
A-------/--------------------------/--------------------------/
E-------/--------------------------/--------------------------/

          G
e---8--------------------/
B------------------------/
G---------9h10--9--7--5--/
D------------------------/
A------------------------/
E------------------------/

   C                      G                       Am   G
Te veo acorralada de unos brazos que no te dejan mover
   C                       G                      Am   G
te deseo me deseas pero estas muy aprisionada corazon
    Am      G        C
Y no vivire sin tu amor
    Am      G         C       Cm        G
Y no parare hasta tener tu amor y tus besos

 C                      Am                            Em    G
Hey estoy viviendo sin vivir estoy muriendo sin poder morir

e------------------------------------
b------------------------------------
g----9----7----9-------9---7---9-----
d-10---10---10---10--7---7---7---7---
a------------------------------------
e------------------------------------

e----------------------------------------
b----------------------------------------
g----9---7---5--------12----10----9------
d--9---9---9---9---12----12----12---12---
a----------------------------------------
e----------------------------------------

 C                    Am                       Em   G
Hey dime dime tell me too cuando seas libre mi amor

e------------------------------------
b------------------------------------
g----9----7----9-------9---7---9-----
d-10---10---10---10--7---7---7---7---
a------------------------------------
e------------------------------------

e----------------------------------------
b----------------------------------------
g----9---7---5--------12----10----9------
d--9---9---9---9---12----12----12---12---
a----------------------------------------
e----------------------------------------

F                    C   G                  Am
Hay no lo puedo soportar no me quiero derrumbar

e-----------------0---------3-----------0------
b------6--------1---1-----3---3-------1--------
g----5---5----0---------0-----------2----------
d--3------------------------------2------------
a----------------------------------------------
e----------------------------------------------

F                      C     G              Am
Mandame un mensaje una señal mandame tu luz amor

e-----------------0---------3-----------0------
b------6--------1---1-----3---3-------1--------
g----5---5----0---------0-----------2----------
d--3------------------------------2------------
a----------------------------------------------
e----------------------------------------------

Em              Am
manda una señal amor

e--------0--------0-----
b------0--------1-------
g----0--------2---------
d--2--------2-----------
a-----------------------
e-----------------------


Am F C G

e--------5-/-----------/------------/
B----------/--------8--/------------/
G--5-------/-----5-----/---------5--/
D-----7----/--7--------/------5-----/
A----------/-----------/---7--------/
E----------/-----------/------------/

e--------5-/-----------/------------/
B----------/--------8--/------------/
G--5-------/-----5-----/---------5--/
D-----7----/--7--------/------5-----/
A----------/-----------/---7--------/
E----------/-----------/------------/

e--------5-/-----------/----------------------/
B----------/--------8--/----------------------/
G--5-------/-----5-----/---------5------------/
D-----7----/--7--------/------5------------5--/
A----------/-----------/---7--------5---7-----/
E----------/-----------/----------------------/

e--------5-/-----------/------------/
B----------/--------8--/------------/
G--5-------/-----5-----/---------5--/
D-----7----/--7--------/------5-----/
A----------/-----------/---7--------/
E----------/-----------/------------/


e--------5-/-----------/--3-3-3-3-3-3-3---/
B----------/--------8--/--3-3-3-3-3-3-3---/
G--5-------/-----5-----/--4-4-4-4-4-4-4---/
D-----7----/--7--------/--5-5-5-5-5-5-5---/
A----------/-----------/--5-5-5-5-5-5-5---/
E----------/-----------/--3-3-3-3-3-3-3---/

Am F C G

e----------------------------------
B--8-8--------8-8-------8-8--------
G------10-9-------10-9------10-9---
D----------------------------------
A----------------------------------
E----------------------------------
 G
e----------------------------------
B----------------------------------
G------------9-10-9-----------------
D--12-10-12-------------------------
A----------------------------------
E----------------------------------
   Am         F         C
e----------------------------------
B--8-8--------8-8-------8-8--------
G------10-9-------10-9------10-9---
D----------------------------------
A----------------------------------
E----------------------------------
 G
e----------------------------------
B----------------------------------
G------------9-10-9-----------------
D--12-10-12-------------------------
A----------------------------------
E----------------------------------

  Am           F            C           G
Vivir sin ti vivir estarse muriendo sin morir

e-------------------------------------
b-------------------------------------
g---9---7---9-------10----9----10-----
d-7---7---7---7--10----10---10----10--
a-------------------------------------
e-------------------------------------

e------------------------------------
b------------------------------------
g----9----7----9-------7---5---7-----
d-10---10---10---10--5---5---5---5---
a------------------------------------
e------------------------------------

  Am           F            C            G
Estar sin ti estar estarse muriendo sin morir

e-------------------------------------
b-------------------------------------
g---9---7---9-------10----9----10-----
d-7---7---7---7--10----10---10----10--
a-------------------------------------
e-------------------------------------

e------------------------------------
b------------------------------------
g----9----7----9-------7---5---7-----
d-10---10---10---10--5---5---5---5---
a------------------------------------
e------------------------------------

  Am           F              C          G
Amor donde estaras manda un mensaje una señal

e-------------------------------------
b-------------------------------------
g---9---7---9-------10----9----10-----
d-7---7---7---7--10----10---10----10--
a-------------------------------------
e-------------------------------------

e------------------------------------
b------------------------------------
g----9----7----9-------7---5---7-----
d-10---10---10---10--5---5---5---5---
a------------------------------------
e------------------------------------

  Am        F           C        G     Am
Y no no parare no vivire sin ti amor   no

e-------------------------------------
b-------------------------------------
g---9---7---9-------10----9----10-----
d-7---7---7---7--10----10---10----10--
a-------------------------------------
e-------------------------------------

e------------------------------------
b------------------------------------
g----9----7----9-------7---5---7-----
d-10---10---10---10--5---5---5---5---
a------------------------------------
e------------------------------------

F C G Am

e----------------------------------
B--8-8--------8-8-------8-8--------
G------10-9-------10-9------10-9---
D----------------------------------
A----------------------------------
E----------------------------------
 G
e----------------------------------
B----------------------------------
G------------9-10-9-----------------
D--12-10-12-------------------------
A----------------------------------
E----------------------------------
   Am         F         C
e----------------------------------
B--8-8--------8-8-------8-8--------
G------10-9-------10-9------10-9---
D----------------------------------
A----------------------------------
E----------------------------------
 G
e----------------------------------
B----------------------------------
G------------9-10-9-----------------
D--12-10-12-------------------------
A----------------------------------
E----------------------------------
Suggest correction
Give kudos to tab author, rate the tab!
1 2 3 4 5
comments
print report bad tab
guest
You may want to rate the tab now too:
select rating
Wanna post a correction for this tab? Suggest correction