Oops, an error
Loading. Please wait.

Manda Una Señal Tab

version 3
version 3

Whole song

Interactive

104 views 1 this week
no commentswrite comment
1 2 3 4 5
3 more votes to show rating
add to favorites
launch autoscroll
font size
0
reset
how to read this tab
guitar tuner
Autoscroll
slow
fast
+/-
esc
set tempo
stop
Help us to improve Ultimate-Guitar.com Take our survey!
×
intro
C G Am G

 C                       G                     Am             G
Te quiero, si te quiero voy andando como fiera tras tus pies, amor
 C                       G                              Am      G
Te veo y te deseo pero tu tienes tu dueño y no te puedes zafar

(Esta parte se hace con palm muting)

 Am         G        C
e|------|---------|--------------
b|------|---------|--------------
g|------|---------|--------------
D|-2-2-2|-5-5-5-5-|-5-5-5-5-5-5-5
A|-0-0-0|-2-2-2-2-|-3-3-3-3-3-3-3
E|------|---------|--------------
 Los dias se pasan sin ti

 Am         G        C        Dm        G
e|------|---------|---------|---------|----------------
b|------|---------|---------|---------|----------------
g|------|---------|---------|---------|----------------
D|-2-2-2|-5-5-5-5-|-5-5-5-5-|-7-7-7-7-|-5-5-5-5-5-5-5-5
A|-0-0-0|-2-2-2-2-|-3-3-3-3-|-5-5-5-5-|-2-2-2-2-2-2-2-2
E|------|---------|---------|---------|----------------
 Las noches se alargan sin ti, sin tu amor, sin tus besos

 C                  Am                 Em                G
e|-----------------|-----------------|-----------------|---------------
b|-----------------|-----------------|-----------------|---------------
g|-9-9-9-7-7-9-9---|-9-9-9-7-7-9-9---|-9-9-9-7-7-9-9-9-|10-10-9-9-7-7-9
D|-8-8-8-8-8-8-8-10|-8-8-8-8-8-8-8-10|-8-8-8-8-8-8-8-8-|8--8--8-8-8-8-8
A|-----------------|-----------------|-----------------|---------------
E|-----------------|-----------------|-----------------|---------------
 Ay, si tuvieras libertad, a tu lado yo estraía amor

 C                  Am                 Em                G
e|-----------------|-----------------|-----------------|---------------
b|-----------------|-----------------|-----------------|---------------
g|-9-9-9-7-7-9-9---|-9-9-9-7-7-9-9---|-9-9-9-7-7-9-9-9-|10-10-9-9-7-7-9
D|-8-8-8-8-8-8-8-10|-8-8-8-8-8-8-8-10|-8-8-8-8-8-8-8-8-|8--8--8-8-8-8-8
A|-----------------|-----------------|-----------------|---------------
E|-----------------|-----------------|-----------------|---------------
 Hey, dame dame una señal, cuando seas libre mi amor

(Aqui es donde termina el palm y comienza el putneo normal)

 F          C         G         Am
e|---------|---------|---------|---------|
b|---1-----|---1-----|-----3---|-------1-|
g|-----2---|-----0---|---0-----|---2-----|
D|-------3-|-------2-|---------|-----2---|
A|-3-------|-3-------|-2-------|-0-------|
E|---------|---------|---------|---------|
 Ay no lo puedo soportar, no me quiero derrumbar

 F          C         G         Am
e|---------|---------|---------|---------|
b|---1-----|---1-----|-----3---|---1-----|
g|-----2---|-----0---|---0-----|-----2---|
D|-------3-|-------2-|---------|-------2-|
A|-3-------|-3-------|---------|-0-------|
E|---------|---------|---------|---------|
 Mandame un mensaje una señal, manda una señal mi amor

 G
e|--------------|-5-|
b|-----3--------|-5-|
g|---0----------|-6-|
D|--------------|-7-|
A|-2------------|-7-|
E|--------------|-5-|
 manda una señal amor

e|-----5-|-----3-|-------|
b|-------|-------|-----3-|
g|-------|-------|-------|
A|---7---|---5---|---5---|
D|-7-----|-5-----|-5-----|
G|-------|-------|-------|
(solo 1)
 C              G               Am           G
e|----10h12-12^-|-10-8-10-12-10~|------10^-8~|---------------|
b|--------------|---------------|------------|---------------|
g|-12-----------|---------------|-12-9-------|-9h10-9-9-7-7-5|
A|--------------|---------------|------------|---------------|
D|--------------|---------------|------------|---------------|
G|--------------|---------------|------------|---------------|

(Esta parte lleva palm muting)

 C                       G                      Am      G
e|-----------------|-----------------|-----------------|---------------
b|-----------------|-----------------|-----------------|---------------
g|-----------------|-----------------|-9-9-9-7-7-7-9-9-|10-10-9-9-7-7-9
D|-----------------|-----------------|-8-8-8-8-8-8-8-8-|8--8--8-8-8-8-8
A|-----------------|-----------------|-----------------|---------------
E|-----------------|-----------------|-----------------|---------------
 Te veo acorralada de unos brazos que no te dejan mover

 C                       G                      Am      G
e|-----------------|-----------------|-----------------|---------------
b|-----------------|-----------------|-----------------|---------------
g|-5-5-5-4-4-5-5---|-----------------|-9-9-9-7-7-7-9-9-|10-10-9-9-7-7-9
D|-5-5-5-5-5-5-5---|-5-5-5-5-5-5-----|-8-8-8-8-8-8-8-8-|8--8--8-8-8-8-8
A|-----------------|-2-2-2-2-2-2-----|-----------------|---------------
E|-----------------|-----------------|-----------------|---------------
 Te deseo y me deseas, pero estas muy aprisionada corazon

Am         G        C
e|------|---------|--------------
b|------|---------|--------------
g|------|---------|--------------
D|-2-2-2|-5-5-5-5-|-5-5-5-5-5-5-5
A|-0-0-0|-2-2-2-2-|-3-3-3-3-3-3-3
E|------|---------|--------------
 Y no vivire sin tu amor

 Am         G        C        Dm        G
e|------|---------|---------|---------|----------------
b|------|---------|---------|---------|----------------
g|------|---------|---------|---------|----------------
D|-2-2-2|-5-5-5-5-|-5-5-5-5-|-7-7-7-7-|-5-5-5-5-5-5-5-5
A|-0-0-0|-2-2-2-2-|-3-3-3-3-|-5-5-5-5-|-2-2-2-2-2-2-2-2
E|------|---------|---------|---------|----------------
 Y no parare hasta tener tu amor y tus besos

 C                  Am                 Em                G
e|-----------------|-----------------|-----------------|---------------
b|-----------------|-----------------|-----------------|---------------
g|-9-9-9-7-7-9-9---|-9-9-9-7-7-9-9---|-9-9-9-7-7-9-9-9-|10-10-9-9-7-7-9
D|-8-8-8-8-8-8-8-10|-8-8-8-8-8-8-8-10|-8-8-8-8-8-8-8-8-|8--8--8-8-8-8-8
A|-----------------|-----------------|-----------------|---------------
E|-----------------|-----------------|-----------------|---------------
 Hey, estoy viviendo sin vivir, estoy muriendo sin poder morir

 C                  Am                 Em                G
e|-----------------|-----------------|-----------------|---------------
b|-----------------|-----------------|-----------------|---------------
g|-9-9-9-7-7-9-9---|-9-9-9-7-7-9-9---|-9-9-9-7-7-9-9-9-|10-10-9-9-7-7-9
D|-8-8-8-8-8-8-8-10|-8-8-8-8-8-8-8-10|-8-8-8-8-8-8-8-8-|8--8--8-8-8-8-8
A|-----------------|-----------------|-----------------|---------------
E|-----------------|-----------------|-----------------|---------------
 Hey, dime dime "tell me" tu cuando seas libre mi amor

(Aqui termina el palm y comienza el punteo normal)

 F          C         G         Am
e|---------|---------|---------|---------|
b|---1-----|---1-----|-----3---|-------1-|
g|-----2---|-----0---|---0-----|---2-----|
D|-------3-|-------2-|---------|-----2---|
A|-3-------|-3-------|-2-------|-0-------|
E|---------|---------|---------|---------|
 Ay no lo puedo soportar, no me quiero derrumbar

 F          C         G         Am
e|---------|---------|---------|---------|
b|---1-----|---1-----|-----3---|---1-----|
g|-----2---|-----0---|---0-----|-----2---|
D|-------3-|-------2-|---------|-------2-|
A|-3-------|-3-------|---------|-0-------|
E|---------|---------|---------|---------|
 Mandame un mensaje una señal, mandame tu luz mi amor

 G
e|--------------|-5-|
b|-----3--------|-5-|
g|---0----------|-6-|
D|--------------|-7-|
A|-2------------|-7-|
E|--------------|-5-|
 manda una señal amor

e|-----5-|-----3-|-------|-5-5-|
b|-------|-------|-----3-|-5-5-|
g|-------|-------|-------|-6-6-|
A|---7---|---5---|---5---|-7-7-|
D|-7-----|-5-----|-5-----|-7-7-|
G|-------|-------|-------|-5-5-|

e|-----5-|-----3-|-------|
b|-------|-------|-----3-|
g|-------|-------|-------| X4
A|---7---|---5---|---5---|
D|-7-----|-5-----|-5-----|
G|-------|-------|-------|

(solo 2)
 Am             F             C             G
e|-------------|-------------|-------------|------------|
b|-8^--8^--6-5-|-8^--8^--6-5-|-8^--8^--6-5-|-------5-6-5|
g|-11^-11^-----|-11^-11^-----|-11^-11^-----|-7-5-7------| X2
A|-------------|-------------|-------------|------------|
D|-------------|-------------|-------------|------------|
G|-------------|-------------|-------------|------------|

 Am              F              C              G
Vivir, sin ti vivir, estarse muriendo sin morir
 Am              F              C              G
Estar, sin ti estar, estarse muriendo sin morir
 Am              F              C              G
Amor, donde estaras, manda un mensaje una señal
 Am              F              C              G
Y no, no parare, no vivire sin ti amor         NO

 Am             F             C             G
e|-------------|-------------|-------------|------------|
b|-8^--8^--6-5-|-8^--8^--6-5-|-8^--8^--6-5-|-------5-6-5|
g|-11^-11^-----|-11^-11^-----|-11^-11^-----|-7-5-7------| X2
A|-------------|-------------|-------------|------------|
D|-------------|-------------|-------------|------------|
G|-------------|-------------|-------------|------------|

Eso es todo, espero las haya gustado
Suggest correction
Give kudos to tab author, rate the tab!
1 2 3 4 5
comments
print report bad tab
guest
You may want to rate the tab now too:
select rating
Wanna post a correction for this tab? Suggest correction