Oops, an error
Loading. Please wait.

Mariposa Traicionera Tab

version 5
version 5

Interactive

by Maná
423 views 3 this week
no commentswrite comment
1 2 3 4 5
2 more votes to show rating
add to favorites
×
Save as Personal and add changes to this tab that will be seen only by you. Learn more ›
×
You can save this tab as Personal to edit and correct it or add notes. All changes will be seen only by you. Learn more »
save as personal
new!
launch autoscroll
font size
0
reset
how to read this tab
guitar tuner
Autoscroll
slow
fast
+/-
esc
set tempo
stop
28 - 08 - 2003
Sin duda deben agregar esta,la mejor versión de todas de
este gran tema.
Es la primera vez que colaboro y ojalá la tomen en cuenta y la
puedan sacar-

Esta canción se toca con capo en el traste 5

Intro

[ch]Fm - D# - C# - G# - Fm[/ch]

|-------------8-8-8----8----6--------------6-6-6---6--------|
|--9--9--9--9-9-9-9--9-9--9-8-8--8-8-8-8-8-8-8-8-8-8-8--9\6-|
|-10-10-10-10-------10---10---8--8-8-8-8-8-------8---8-10\6-|
|-----------------------------------------------------------|
|-----------------------------------------------------------|
|-----------------------------------------------------------|
                                            Outro
|--------------------------------------x--------------|
|-----9----9----9----9\---8\-----------x--------------|
|-/10---10---10---10\---8\----5--8-5---x---5----------|
|----------------------------/6-10-6---x---6--8-6-5-6-|
|--------------------------------------x-----10-8-6-8-|
|--------------------------------------x--------------|

- (*) Outro 2° guitarra -  


|-------------|
|-------------|
|-------------|
|-5/6-5-------|
|-------8-6-8-|
|-------------|

Versos

Fm                  D#
Eres como una mariposa
                                   C#
vuelas y te posas vas de boca en boca
                               G#
fácil y ligera de quien te provoca (*)

Yo soy ratón de tu ratonera
trampa que no mata pero no libera
vivo muriendo prisionero

|----------------|
|----------------|
|----------------|
|-/6-6-6-6-5-----|
|------------8-7-|
|----------------|

Pre Coro

|-------9-------9--------11-------11--------11-------11--------13-------13-|
|-------9-------9--------11-------11-----13-------13--------13-------13----|
|-10-10---10-10----12-12----12-12-----13-------13--------13-------13-------|
|--------------------------------------------------------------------------|
|--------------------------------------------------------------------------|
|--------------------------------------------------------------------------|

|-------9-------9--------11-------11-|
|-------9-------9--------11-------11-|
|-10-10---10-10----12-12----12-12----|
|------------------------------------|
|------------------------------------|
|------------------------------------|

C#   D#           G#
Mariposa traicionera

            Fm
todo se lo lleva el viento

C#   D#         C
mariposa no regreso

|--------------------|
|-5-6-8-/10-8-6-8/10-|
|--------------------|
|-5-7-8-/10-8-7-8/10-|
|--------------------|
|--------------------|

Coro

F       
Ay mariposa de amor, mi mariposa de amor
                 C
ya no regreso contigo

(Fig. 1)

|------------6-x-6--|
|-8-8-8-6-8--8-x-5--|
|------------7-x-5--|
|-8-8-8-7-8---------|
|-------------------|
|-------------------|

Gm               C     
ay mariposa de amor, mi mariposa de amor
                    F
nunca jamás junto a ti

(Fig. 2)

|--8-10--8-10--8--10-10--8-|
|-10-10-10-10-10--10-10-10-|
|-10-10-10-10-10--10-10-10-|
|--------------------------|
|--------------------------|
|--------------------------|

F                      F7
vuela amor, vuela dolor
                    A#
y no regreses a un lado

|-10-10-10-10-12-12/13-|
|-11-11-11-11-13-13/15-|
|----------------------|
|----------------------|
|----------------------|
|----------------------|

A#                  F
ya vete de flor en flor

|-5-5-5-6--8-10-13-12-12-|
|-6-6-6-8-10-11-15-13-13-|
|------------------------|
|------------------------|
|------------------------|
|------------------------|

     C               F
seduciendo, a los pistilos

(Fig. 3)

|-----------------------|
|-----------------------|
|---7-5-----------------|
|-7-----8-7/8\7-5-7-7/8-|
|-----------------------|
|-----------------------|

A#                F
y vuela cerca del sol
        C                    F
pa' que sientas lo que es dolor

Coro Out

|-5-5-5-6-8-|
|-----------|
|-5-5-5-7-9-|
|-----------|
|-----------|
|-----------|

Solo 

F#m - D# - C# - G# - * Fm
 
|------------------------6------------------------------------------|
|----9-6-8-6-8-6-8-6--------8-9-8-9-8-9-8---6--6-8-6-8--9-8-6-------|
|-5--5-5-5-5-5-5-5-5-6/8-----------------------------8-10-8-6--8\-5-|
|---------------------------8-8-8-8-8-8-8-6----6-6-6----------10\-6-|
|-------------------------------------------------------------------|
|-------------------------------------------------------------------|
                (*)
|---------6---6/8-6-------|
|---6-8-9---9-------9-8-9-|
|-8-----5-6-5---5---------|
|-5-6-8-----------8-6-5-6-|
|-------------------------|
|-------------------------|

Versos 2° parte

Ay mujer cómo haces daño
pasan los minutos cual si fueran años
mira estos celos me están matando (*)

|---------------------------------|
|-------13\----11\----9\---8\---6-|
|---------------------------------|
|-11/13\----11\----10\---8\---6---|
|---------------------------------|
|---------------------------------|

Ay mujer qué fácil eres
abre tus alitas muslos de colores
donde se posan tus amores

Pre Coro 2
                                       (X)
|------8--------11--------11--------13-------13--------9-------9-------11-------11-|
|--------------------------------13-------13-----------9-------9-------11-------11-|
|-8/10----10/12-----12/13-----13-------13--------10-10---10-10---12-12----12-12----|
|----------------------------------------------------------------------------------|
|----------------------------------------------------------------------------------|
|----------------------------------------------------------------------------------|

- lo que sigue se toca sobre los punteos donde esta la (X)-

|---------------|
|--9-8-11-8-6-6-|
|---------------|
|-10-8-11-8-6-6-|
|---------------|
|---------------|

Mariposa traicionera
todo se lo lleva el viento
mariposa no regreso

|---5-6-8-10-12-12/13-|
|-8-------------------|
|---5-7-9-10-12-12/14-|
|-8-------------------|
|---------------------|
|---------------------|

Coro 2

Ay mariposa de amor, mi mariposa de amor
ta no regreso contigo (Fig. 1)
ay mariposa de amor mi mariposa de amor
nunca jamás junto a ti (Fig. 2)
vuela amor, vuela dolor
que tengas suerte en tu vida

|-------------------------------------|
|---------------8-8-10-10-11-11-13-13-|
|-7-7-9-9-10-10-----------------------|
|-------------------------------------|
|-------------------------------------|
|-------------------------------------|

- los siguiente va con un rasgeo rápido, sólo en las 2 cuerdas que se tocan - 

|-13--12-10--8-|         
|-15--13-11-10-|         
|x-------------|  ayayayayay dolor
|x-------------|         
|x-------------|         
|x-------------|      

yo te lloré todo un río (Fig. 3)
ayayayayay amor
tú te me vas a volar

|-5-5-5-6-8---------|
|-----------------9-|
|-5-5-5-7-9---------|
|-------------8/10--|
|-------------------|
|-------------------|

- luego se toca la Intro, que va así - 
                
               (*)
|---------6---6/8-6-------|
|---6-8-9---9-------9-8-9-|
|-8-----5-6-5---5---------|
|-5-6-8-----------8-6-5-6-|
|-------------------------|
|-------------------------|

- Fin 

Un gran saludo al 4|H del LHT.
Y A TODOS LOS QUE GUSTAN DE LA BUENA MÚSICA EN cHILE. bye

Cualquier duda, consulta, a 
alexes@
Suggest correction
Give kudos to tab author, rate the tab!
1 2 3 4 5
comments
print report bad tab
guest
Wanna post a correction for this tab? Suggest correction