Oops, an error
Loading. Please wait.

Mariposa Traicionera Bass Tab

version 1
version 1

Whole song

Interactive

587 views 12 this week
no commentswrite comment
1 2 3 4 5
2 more votes to show rating
add to favorites
launch autoscroll
font size
0
reset
guitar tuner
×
Best way to learn
"Mariposa Traicionera"
Autoscroll
slow
fast
+/-
esc
set tempo
stop
Hola espero que les guste el tab :D

 Intro:

G||----------5---------------------3---5----5-8----||
D||-3-6-33-6-----5----5-----3----3---6---66-----65-||
A||------------6---66---6/4---44-------------------||
E||------------------------------------------------||

 Verso :
Eres como una mariposa...

G||----------5---------------------3---5----5-8----||
D||-3-6-33-6-----5----5-----3----3---6---66-----65-||
A||------------6---66---6/4---44-------------------||
E||------------------------------------------------||

Yo soy raton de tu ratonera...

G||----------5---------------------3---5-||
D||-3-6-33-6-----5----5-----3----3---6---||
A||------------6---66---6/4---44---------||
E||--------------------------------------||

 PreCoro
Mariposa traicionera...

G||---------------5-------------------------------||
D||---3---------6---6-----------3-----------------||
A||-4--4-6----6-------8----8--4---4-6----6--3-5-7-||
E||--------66-----------88------------66----------||

 Coro
Ay,mariposa de amor...

G||---------------------------------------------------||
D||---------------------22-5---------2-5---22-5-------||
A||---0-3---0-3---0-1-3----------5-3-----3--------0-3-||
E||-1-----1-----1------------3-6----------------1-----||

Vuela amor, vuela dolor

G||---------------------------------------------------||
D||----------------------00-3---0-3---------2-5-------||
A||---0-3---00-3-------1------1-------0-1-3-----------||
E||-1-----1------1-3-5--------------1-----------1-3-5-||

 y vuela cerca del sol

G||---------3-6------------||
D||---0-3-5----------------||
A||-1------------0-3---0-1-||
E||-------------1----1-----||

Parte sin vocales

G||----------5---------------------3---5----5-8----||
D||-3-6-33-6-----5----5-----3----3---6---66-----65-||
A||------------6---66---6/4---44-------------------||
E||------------------------------------------------||

Verso :
Ay, mujer como haces daño

G||----------5---------------------3---5----5-8----||
D||-3-6-33-6-----5----5-----3----3---6---66-----65-||
A||------------6---66---6/4---44-------------------||
E||------------------------------------------------||

Ay, mujer que facil eres

G||----------5---------------------3---5-||
D||-3-6-33-6-----5----5-----3----3---6---||
A||------------6---66---6/4---44---------||
E||--------------------------------------||

 PreCoro
Mariposa traicionera...

G||---------------5-------------------------------||
D||---3---------6---6-----------3-----------------||
A||-4--4-6----6-------8----8--4---4-6----6--3-5-7-||
E||--------66-----------88------------66----------||

 Coro
Ay,mariposa de amor...

G||---------------------------------------------------||
D||---------------------22-5---------2-5---22-5-------||
A||---0-3---0-3---0-1-3----------5-3-----3--------0-3-||
E||-1-----1-----1------------3-6----------------1-----||

Vuela amor, vuela dolor

G||---------------------------------------------------||
D||----------------------00-3---0-3---------2-5-------||
A||---0-3---00-3-------1------1-------0-1-3-----------||
E||-1-----1------1-3-5--------------1-----------1-3-5-||

ay,ay,ay,ay,ay, amor

G||---------3-6------------||
D||---0-3-5----------------||
A||-1------------0-3---0-1-||
E||-------------1----1-----||

Final sin vocal

G||----------5---------------------3---5----5-8-----||
D||-3-6-33-6-----5----5-----3----3---6---66-----65-3||
A||------------6---66---6/4---44--------------------||
E||-------------------------------------------------||

gracias es mi primer tab :D
Suggest correction
Give kudos to tab author, rate the tab!
1 2 3 4 5
comments
print report bad tab
guest
You may want to rate the tab now too:
select rating
Wanna post a correction for this tab? Suggest correction