Oops, an error
Loading. Please wait.

Mariposa Traicionera Bass Tab

version 3
version 3

Whole song

Interactive

109 views 1 this week
no commentswrite comment
1 2 3 4 5
3 more votes to show rating
add to favorites
launch autoscroll
font size
0
reset
guitar tuner
Autoscroll
slow
fast
+/-
esc
set tempo
stop
Help us to improve Ultimate-Guitar.com Take our survey!
×
Antes que nada un saludo a todos los músicos de Anzumito: 
Gustavo, Lucho, Fernando, David, Oscar, Johny y Miguel... 
y  aquí les va: 

El( / )significa slide

Intro


        Fm                  D#               C#               G#
G|-------------------|---0-----0-3---|---------------|-----------------|
D|-------------------|-1---1-1-----1-|---3-----3-3-6-|-----------------|
A|-----------------3-|---------------|-4---4-4-------|---3-----3-6-----|
E|-1--4--1-1--4-4----|---------------|---------------|-4---4-4-----0-1-|


Verso

        Fm                   D#              C#                G#
G|-------------------|---0-----0-3---|---------------|-----------------|
D|-------------------|-1---1-1-----1-|---3-----3-3-6-|-----------------|
A|-----------------3-|---------------|-4---4-4-------|---3-----3-6-----|
E|-1--4--1-1--4-4----|---------------|---------------|-4---4-4-----0-1-|

Eres como una mariposa, vuelas y te posas vas de boca en boca, fácil 
y ligera de quien te provoca...

          Fm                  D#               C#              G#
G|-------------------|---0-----0-3---|---------------|------------|
D|-------------------|-1---1-1-----1-|---3-----3-3-6-|------------|
A|-----------------3-|---------------|-4---4-4-------|-------3-6--|
E|-1--4--1-1--4-4----|---------------|---------------|----4-------|

Yo soy ratón de tu ratonera, trampa que no mata pero no libera, 
sigo muriendo prisionero...


Pre-coro 


     C#         D#        G#        Fm
G|---------|----------|--------|-----------|
D|----3----|-1-----1--|--------|--------3--|
A|-4----4--|---1-1----|---3----|----3-3----|
E|---------|----------|-4----4-|-1---------|    

Mariposa traicionera... todo se lo lleva el viento...


     C#         D#           C
G|---------|----------|---------------|
D|----3----|-1-----1--|---------------|
A|-4----4--|---1-1----|-3--5----------|
E|---------|----------|-------0--1----|    

Mariposa no regreso...


Coro

     
              F               C        Gm             C   
G|-----------------------|-------|---------|------------------|
D|-----------------------|-2-2-5-|---------|---2-5-----2-2-5--|
A|---0-3----0-3----0-1-3-|-------|---1---5-|-3-------3--------|
E|-1------1------1-------|-------|-3-------|------------------|

Ay mariposa de amor, mi mariposa de amor... ya no regreso contigo
Ay mariposa de amor mi mariposa de amor... nunca jamás junto a ti


             F              F7         Bb            F      C       F
G|----------------------|-------|----------------|------|-------|-------|
D|----------------------|-------|---0-0-3----0-3-|------|---2-5-|-------|
A|---0-3----0-3---0-0-3-|-------|-1--------1-----|--0-1-|-3-----|-------|
E|-1------1-----1-------|-1-3-5-|----------------|-1----|-------|-1-3-5-|

Vuela amor, vuela dolor, y no regreses a un lado... ya vete de 
flor en flor... seduciendo a los pistilos


        Bb           F       C       F 
G|---------------|-------|-------|-----------|
D|---0--3/5------|-------|---2-5-|-----------|
A|-1-------------|---0-1-|-3-----|---0-0-3---|
E|---------------|-1-----|-------|-1-------1-|

Y vuela cerca del sol... pa
Suggest correction
Give kudos to tab author, rate the tab!
1 2 3 4 5
comments
print report bad tab
guest
You may want to rate the tab now too:
select rating
Wanna post a correction for this tab? Suggest correction