Oops, an error
Loading. Please wait.

Mi Reina Del Dolor Tab

293 views 1 this week
no commentswrite comment
1 2 3 4 5
3 more votes to show rating
add to favorites
launch autoscroll
font size
0
reset
how to read this tab
guitar tuner
Autoscroll
slow
fast
+/-
esc
set tempo
stop
Help us to improve Ultimate-Guitar.com Take our survey!
×
intro
e---7---7-x-x-x-2-2-2---4---4-x-x-x-7-7-7--
B---7---7-x-x-x-2-2-2---4---4-x-x-x-7-7-7--
G---8---8-x-x-x-3-3-3---4---4-x-x-x-9-9-9--
A-9-9-9-9-x-x-x-4-4-4-6-6-6-6-x-x-x-9-9-9--
A-9-9-9-9-x-x-x-4-4-4-6-6-6-6-x-x-x-7-7-7--
E-7-7-7-7-x-x-x-2-2-2-4-4-4-4-x-x-x-7-7-7--

e---7---7-x-x-x-2-2-2---4---4-x-x-x-X-X-X--
B---7---7-x-x-x-2-2-2---4---4-x-x-x-X-X-X--
G---8---8-x-x-x-3-3-3---4---4-x-x-x-X-X-X--
A-9-9-9-9-x-x-x-4-4-4-6-6-6-6-x-x-x-X-X-X--
A-9-9-9-9-x-x-x-4-4-4-6-6-6-6-x-x-x-X-X-X--
E-7-7-7-7-x-x-x-2-2-2-4-4-4-4-x-x-x-X-X-X--

e---7---7-x-x-x-2-2-2---4---4-x-x-x-7-7-7--
B---7---7-x-x-x-2-2-2---4---4-x-x-x-7-7-7--
G---8---8-x-x-x-3-3-3---4---4-x-x-x-9-9-9-- guitarra 1
A-9-9-9-9-x-x-x-4-4-4-6-6-6-6-x-x-x-9-9-9--
A-9-9-9-9-x-x-x-4-4-4-6-6-6-6-x-x-x-7-7-7--
E-7-7-7-7-x-x-x-2-2-2-4-4-4-4-x-x-x-7-7-7--

e-----------------------------------------------------
B-----------------------------------------------------
G--9--8--6------9--8--6--7---9--8--6-----9--8--7------ guitarra
D-9--9--9--9---9--9--9--9---9--9--9--9--9--9--9----9--  2
A---------7-------------------------7-------------7---
E-----------------------------------------------------


Vas por el mundo destrozando corazones
e--------------------------------------------
B---------x-x-x-2-2-2--4-4-4-5-x-x-x---------
G-4-4-4-4-x-x-x-3-3-3--4-4-4-4-x-x-x-9-9-9-9-
D-4-4-4-4-x-x-x-4-4-4--6-6-6-6-x-x-x-9-9-9-9-
A-2-2-2-2-x-x-x-4-4-4--6-6-6-6-x-x-x-7-7-7-7-
E--------------------------------------------
podras tener mas de mil hombres a tus pies
e--------------------------------------------
B---------x-x-x-2-2-2--4-4-4-5-x-x-x---------
G-4-4-4-4-x-x-x-3-3-3--4-4-4-4-x-x-x-9-9-9-9-
D-4-4-4-4-x-x-x-4-4-4--6-6-6-6-x-x-x-9-9-9-9-
A-2-2-2-2-x-x-x-4-4-4--6-6-6-6-x-x-x-7-7-7-7-
E--------------------------------------------
pero mi ya no verás no lo repones
e--------------------------------------------
B---------x-x-x-2-2-2--4-4-4-5-x-x-x---------
G-4-4-4-4-x-x-x-3-3-3--4-4-4-4-x-x-x-9-9-9-9-
D-4-4-4-4-x-x-x-4-4-4--6-6-6-6-x-x-x-9-9-9-9-
A-2-2-2-2-x-x-x-4-4-4--6-6-6-6-x-x-x-7-7-7-7-
E--------------------------------------------
óyeme nena tu mi reina te me vas a volar
e--------------------------------------------
B---------x-x-x-2-2-2--4-4-4-5-x-x-x---------
G-4-4-4-4-x-x-x-3-3-3--4-4-4-4-x-x-x-9-9-9-9-
D-4-4-4-4-x-x-x-4-4-4--6-6-6-6-x-x-x-9-9-9-9-
A-2-2-2-2-x-x-x-4-4-4--6-6-6-6-x-x-x-7-7-7-7-
E--------------------------------------------

e---7---7-x-x-x-2-2-2---4---4-x-x-x-7-7-7--
B---7---7-x-x-x-2-2-2---4---4-x-x-x-7-7-7--
G---8---8-x-x-x-3-3-3---4---4-x-x-x-9-9-9-- guitarra 1
A-9-9-9-9-x-x-x-4-4-4-6-6-6-6-x-x-x-9-9-9--
A-9-9-9-9-x-x-x-4-4-4-6-6-6-6-x-x-x-7-7-7--
E-7-7-7-7-x-x-x-2-2-2-4-4-4-4-x-x-x-7-7-7--

e-----------------------------------------------------
B------------------------7-----------------------------
G--9--8--6------9--8--6------9--8--6-----9--8--11----- guitarra
D-9--9--9--9---9--9--9--9---9--9--9--9--9--9--9----9--  2
A---------7-------------------------7-------------7---
E-----------------------------------------------------

Cuando me vaya empezarás a valorarme
e--------------------------------------------
B---------x-x-x-2-2-2--4-4-4-5-x-x-x---------
G-4-4-4-4-x-x-x-3-3-3--4-4-4-4-x-x-x-9-9-9-9-
D-4-4-4-4-x-x-x-4-4-4--6-6-6-6-x-x-x-9-9-9-9-
A-2-2-2-2-x-x-x-4-4-4--6-6-6-6-x-x-x-7-7-7-7-
E--------------------------------------------
amor del bueno nunca es fácil encontrar
e--------------------------------------------
B---------x-x-x-2-2-2--4-4-4-5-x-x-x---------
G-4-4-4-4-x-x-x-3-3-3--4-4-4-4-x-x-x-9-9-9-9-
D-4-4-4-4-x-x-x-4-4-4--6-6-6-6-x-x-x-9-9-9-9-
A-2-2-2-2-x-x-x-4-4-4--6-6-6-6-x-x-x-7-7-7-7-
E--------------------------------------------
de ti mi vida ya no vuelvo a enamorarme
e--------------------------------------------
B---------x-x-x-2-2-2--4-4-4-5-x-x-x---------
G-4-4-4-4-x-x-x-3-3-3--4-4-4-4-x-x-x-9-9-9-9-
D-4-4-4-4-x-x-x-4-4-4--6-6-6-6-x-x-x-9-9-9-9-
A-2-2-2-2-x-x-x-4-4-4--6-6-6-6-x-x-x-7-7-7-7-
E--------------------------------------------
vete al infierno y te me pintas a volar
e--------------------------------------------
B---------x-x-x-2-2-2--4-4-4-5-x-x-x---------
G-4-4-4-4-x-x-x-3-3-3--4-4-4-4-x-x-x-9-9-9-9-
D-4-4-4-4-x-x-x-4-4-4--6-6-6-6-x-x-x-9-9-9-9-
A-2-2-2-2-x-x-x-4-4-4--6-6-6-6-x-x-x-7-7-7-7-
E--------------------------------------------

Prefiero sólo que atado mi reina del dolor
e---------------------------------------------
B---------------------------------------------
G-------------------------------------9-9-9--- guitarra 1
D-9-9-9-9-9-x-x-x-4-4-4-6-6-6-6-x-x-x-9-9-9---
A-9-9-9-9-9-x-x-x-4-4-4-6-6-6-6-x-x-x-7-7-7---
E-7-7-7-7-7-x-x-x-2-2-2-4-4-4-4-x-x-x---------

e---------------
B-----2--4------
G--4-------4---- guitarra 2
D---------------
A---------------
E---------------
prefiero sólo a que engañado que tengas suerte amor
e---------------------------------------------
B---------------------------------------------
G-------------------------------------9-9-9--- guitarra 1
D-9-9-9-9-9-x-x-x-4-4-4-6-6-6-6-x-x-x-9-9-9---
A-9-9-9-9-9-x-x-x-4-4-4-6-6-6-6-x-x-x-7-7-7---
E-7-7-7-7-7-x-x-x-2-2-2-4-4-4-4-x-x-x---------

e---------------
B-----2--4------
G--4-------4---- guitarra 2
D---------------
A---------------
E---------------
te digo adiós bye bye mi reina del dooooolor
e---------------------------------------------
B---------------------------------------------
G-------------------------------------9-9-9--- guitarra 1
D-9-9-9-9-9-x-x-x-4-4-4-6-6-6-6-x-x-x-9-9-9--- x2
A-9-9-9-9-9-x-x-x-4-4-4-6-6-6-6-x-x-x-7-7-7---
E-7-7-7-7-7-x-x-x-2-2-2-4-4-4-4-x-x-x---------

e---------------
B-----2--4------
G--4-------4---- guitarra 2
D---------------
A---------------
E---------------


e--------------------------
B-----2--4---5-4-----7-----
G--4--------4-------------- guitarra 2
D-------------------------- aqui sostiene en el traste 4 de la
A-------------------------- cuerda dos y tambien sostiene el
E-------------------------- el que viene

Hoy me pregunto por que quieres humillarme
e---7---7-x-x-x-2-2-2---4---4-x-x-x-7-7-7--
B---7---7-x-x-x-2-2-2---4---4-x-x-x-7-7-7--
G---8---8-x-x-x-3-3-3---4---4-x-x-x-9-9-9--
A-9-9-9-9-x-x-x-4-4-4-6-6-6-6-x-x-x-9-9-9--
A-9-9-9-9-x-x-x-4-4-4-6-6-6-6-x-x-x-7-7-7--
E-7-7-7-7-x-x-x-2-2-2-4-4-4-4-x-x-x-7-7-7--
nunca me amaste por favor déjame en paz
e---7---7-x-x-x-2-2-2---4---4-x-x-x-7-7-7--
B---7---7-x-x-x-2-2-2---4---4-x-x-x-7-7-7--
G---8---8-x-x-x-3-3-3---4---4-x-x-x-9-9-9--
A-9-9-9-9-x-x-x-4-4-4-6-6-6-6-x-x-x-9-9-9--
A-9-9-9-9-x-x-x-4-4-4-6-6-6-6-x-x-x-7-7-7--
E-7-7-7-7-x-x-x-2-2-2-4-4-4-4-x-x-x-7-7-7--
y aunque me pidas de rodillas voy a amarte
e--------------------------------------------
B---------x-x-x-2-2-2--4-4-4-5-x-x-x---------
G-4-4-4-4-x-x-x-3-3-3--4-4-4-4-x-x-x-9-9-9-9-
D-4-4-4-4-x-x-x-4-4-4--6-6-6-6-x-x-x-9-9-9-9-
A-2-2-2-2-x-x-x-4-4-4--6-6-6-6-x-x-x-7-7-7-7-
E--------------------------------------------
hoy me di cuenta de mi triste realidad
e--------------------------------------------
B---------x-x-x-2-2-2--4-4-4-5-x-x-x---------
G-4-4-4-4-x-x-x-3-3-3--4-4-4-4-x-x-x-9-9-9-9-
D-4-4-4-4-x-x-x-4-4-4--6-6-6-6-x-x-x-9-9-9-9-
A-2-2-2-2-x-x-x-4-4-4--6-6-6-6-x-x-x-7-7-7-7-
E--------------------------------------------
hoy me di cuenta de mi error lo sé (lo sé) mi reina del dolor
e-------------------------
B------3------4-----7----- guitarra 1
G------2------4-----9-----
D-9----4------6-----9-----
A-9----4------6-----7-----
E-7-----------------------

e-6-6-6-7--12-14----
B-------------------
G------------------- guitarra 2
D-------------------
A-------------------
E-------------------
prefiero sólo a que engañado que tengas suerte amor
e---------------------------------------------
B---------------------------------------------
G-------------------------------------9-9-9--- guitarra 1
D-9-9-9-9-9-x-x-x-4-4-4-6-6-6-6-x-x-x-9-9-9---
A-9-9-9-9-9-x-x-x-4-4-4-6-6-6-6-x-x-x-7-7-7---
E-7-7-7-7-7-x-x-x-2-2-2-4-4-4-4-x-x-x---------

e---------------
B-----2--4------
G--4-------4---- guitarra 2
D---------------
A---------------
E---------------
te digo adiós bye bye mi reina del dooooolor
e---------------------------------------------
B---------------------------------------------
G-------------------------------------9-9-9--- guitarra 1
D-9-9-9-9-9-x-x-x-4-4-4-6-6-6-6-x-x-x-9-9-9--- x2
A-9-9-9-9-9-x-x-x-4-4-4-6-6-6-6-x-x-x-7-7-7---
E-7-7-7-7-7-x-x-x-2-2-2-4-4-4-4-x-x-x---------

e---------------
B-----2--4------
G--4-------4---- guitarra 2
D---------------
A---------------
E---------------


e--------------------------
B-----2--4---5-4----------
G--4--------4-------------- guitarra 2
D--------------------------
A--------------------------
E--------------------------

No me hieras mas no mi amor mi sirena del dolor
e---------------------------------------
B---------------------------------------
G---------------------------------------
D-9---9--11-11--11--8-8--8--9-9---9-----
A--9---9------9---9----7--7----11--11/7-
E---------------------------------------
hoy me doy cuenta del vacío quedas ya en el olvido
e--------------------------------------
B--------------------------------------
G--------------------------------8---8-
D-9---9--11-11--11--11-11---11---------
A--9---9------9---9------10---10---11--
E--------------------------------------
uo oh oh oh uh oh oh oh
Prefiero solo que engañado mi reina del amor
solo:
e-----6-7----------6-7-11s-11/12--
B-9s-------9--7--9s---------------
G--------8--9--------------------- s:sostener la cuerda
D--------------------------------- no encontre la simbologia
A---------------------------------
E---------------------------------

Y aunque me implores y me llores jamas yo volveré
e---------------------------------------------
B---------------------------------------------
G-------------------------------------9-9-9--- guitarra 1
D-9-9-9-9-9-x-x-x-4-4-4-6-6-6-6-x-x-x-9-9-9---
A-9-9-9-9-9-x-x-x-4-4-4-6-6-6-6-x-x-x-7-7-7---
E-7-7-7-7-7-x-x-x-2-2-2-4-4-4-4-x-x-x---------

e---------------
B-----2--4------
G--4-------4---- guitarra 2
D---------------
A---------------
E---------------
y aunque me pidas de rodillas jamas yo volveré
e---------------------------------------------
B---------------------------------------------
G-------------------------------------9-9-9--- guitarra 1
D-9-9-9-9-9-x-x-x-4-4-4-6-6-6-6-x-x-x-9-9-9---
A-9-9-9-9-9-x-x-x-4-4-4-6-6-6-6-x-x-x-7-7-7---
E-7-7-7-7-7-x-x-x-2-2-2-4-4-4-4-x-x-x---------

e---------------
B-----2--4------
G--4-------4---- guitarra 2
D---------------
A---------------
E---------------
te digo adios bye bye mi reina del dolor
e---------------------------------------------
B---------------------------------------------
G-------------------------------------9-9-9--- guitarra 1
D-9-9-9-9-9-x-x-x-4-4-4-6-6-6-6-x-x-x-9-9-9---
A-9-9-9-9-9-x-x-x-4-4-4-6-6-6-6-x-x-x-7-7-7---
E-7-7-7-7-7-x-x-x-2-2-2-4-4-4-4-x-x-x---------

e---------------
B-----2--4--5-4-
G--4-------4---- guitarra 2
D---------------
A---------------
E---------------
No me hieras mas no mi amor
e---------------------------------------
B---------------------------------------
G---------------------------------------
D-9---9--11-11--11--8-8--8--9-9---9-----
A--9---9------9---9----7--7----11--11/7-
E---------------------------------------
mi sirena del dolor
e--------------------------------------
B--------------------------------------
G--------------------------------8---8-
D-9---9--11-11--11--11-11---11---------
A--9---9------9---9------10---10---11--
E--------------------------------------
uh oh oh oh uh oh oh oh uh oh oh oh
e--------------------------------------
B--------------------------------------
G--------------------------------8---8-
D-9---9--11-11--11--11-11---11---------
A--9---9------9---9------10---10---11--
E--------------------------------------
uh oh oh oh Uh oh oh oh
e---------------------------------
B---------------------------------
G---------------------------------
D-9--9---11-11--11--8-8-8-------9-
A--11-11------9---9----9-9-9/11---
E---------------------------------
Prefiero solo a que engañado mi reina del dolor
mi reina del dolor

mi reina del dolor
e------------6-7-11s-11/12--
B----------9s---------------
G--------------------------- s:sostener la cuerda
D--------------------------- no encontre la simbologia
A---------------------------
E---------------------------

e-----4-----
B-----4-----
G-----4-----
D-----6-----
A-----6-----
E-----4-----
Suggest correction
Give kudos to tab author, rate the tab!
1 2 3 4 5
comments
print report bad tab
guest
You may want to rate the tab now too:
select rating
Wanna post a correction for this tab? Suggest correction