Oops, an error
Loading. Please wait.

Mis Ojos Tab

version 3
version 3

Whole song

by Maná
77 views 3 this week
no commentswrite comment
1 2 3 4 5
3 more votes to show rating
add to favorites
×
Save as Personal and add changes to this tab that will be seen only by you. Learn more ›
×
You can save this tab as Personal to edit and correct it or add notes. All changes will be seen only by you. Learn more »
save as personal
new!
launch autoscroll
font size
0
reset
how to read this tab
guitar tuner
Autoscroll
slow
fast
+/-
esc
set tempo
stop
MIS OJOS- VERSION CORREGIDA:

Pues mas que corregida, yo describiria este tab mas completo que el anterior,
tiene los arreglos de la guitarra acustica y algunos de la electrica,
asi que espero que lo disfruten:


*INTRO:


   Toca esto tres veces.... luego esto a la cuarta vez
1. -----0----------0-1-----|-----0----------0-1------|
2. ---1---1------3-------0-|---1---1------3-------0--|
3. -0-------0--0-------0---|-2-------2--0-------0----|
4. ------------------------|-------------------------|
5. ------------------------|-------------------------|
6. ------------------------|-------------------------|


            C                  Am
Gracias a Dios,     que me dio mis ojos,
1. ---------0--0-0-------------------0--0-0-----|
2. ---------1--1-1-------------------1--1-1-----|
3. ---------0--0-0-------------------2--2-2-----|
4. ---------2--2-2-------------------2--2-2-----|
5. ---------3--3-3-------------------0--0-0-----|
6. ---------0--0-0------------------------------|
            F         G                      C
que me dio mi boca,     que me dio toda mi piel.
1. ------------1-1--1-1---------------3---------|--------------|
2. ------------1-1--1-1---------------0---------|-8-8\6-6-6\5--|
3. ------------2-2--2-2---------------0---------|-9-9\7-7-7\5--|
4. ------------3-3--3-3---------------0---------|--------------|
5. ------------3-3--3-3---------------2---------|--------------|
6. ------------1-1--1-1---------------3---------|--------------|

 G          C                       Am
Tengo dos piernas,    para recorrer el mundo,
1. ------------0--0-0--------------------0--0-0--|
2. ------------1--1-1--------------------1--1-1--|
3. ------------0--0-0--------------------2--2-2--|
4. ------------2--2-2--------------------2--2-2--|
5. ------------3--3-3--------------------0--0-0--|
6. ------------0--0-0----------------------------|
               F             G                   C
por los mares mas profundos,  para llegar hasta ti.
1. ------------1-1------1-1--3-------------0---|
2. ------------1-1------1-1--0-------------1---|
3. ------------2-2------2-2--0-------------0---|
4. ------------3-3------3-3--0-------------2---|
5. ------------3-3------3-3--2-------------3---|
6. ------------1-1------1-1-
Suggest correction
Give kudos to tab author, rate the tab!
1 2 3 4 5
comments
print report bad tab
guest
Wanna post a correction for this tab? Suggest correction