Oops, an error
Loading. Please wait.

Mis Ojos Bass Tab

19 views 1 this week
no commentswrite comment
1 2 3 4 5
3 more votes to show rating
add to favorites
launch autoscroll
font size
0
reset
guitar tuner
Autoscroll
slow
fast
+/-
esc
set tempo
stop
Help us to improve Ultimate-Guitar.com Take our survey!
×
Transcripcion por Fulvio Romeo
hazardous_2004@
Esta es una de las mejores que tiene Maná


Intro
|--------------------------------------|Se repite 2 veces
|-----------------------3-3------------|este compas
|-3-3-3-3-3-3-3-3-2-2-2-----2-2-2------|
|--------------------------------------|
y despues esto

|--------------------------------------|
|-----------------------3-3------------|
|---------------------------2-2-2------|
|-5-5-5-5-5-5-5-5-3-3-3----------------|

Estrofa
Gracias a Dios........
|-------------------------------------------|
|-------------------------------------------|
|-3---3-3---2-----------6-7---7--10---10/-3-|resbala la cuerda hasta '3'
|--------------5---5-5----------------------|

|----------------|
|-5-5-3-3-2-3-5--|
|----------------|
|----------------|
|---------------------------------------------|
|----------------------------9----------------|
|-3---3-3---2-----------6-7----7---10---10/-3-|
|--------------5---5-5------------------------|

|------------------------------------------------|
|------------------------------------------------|
|-3--3-3-3-3--2-2-2-2----------------------------|
|----------------------5--55-5-5--5-55-5--3-33-3-|

|----------------|
|----------------|
|----------------|
|1-1-1-1-3-3-3-3-|

Gracias al Cielo........
|-------------------------------------------------------------|
|-------------------------------------------------------------|
|-3-3-33-3---3-3-33-2-------------------6-7-7-77-7-10-1010-7/-|
|----------3----------5-5-55-5-0-5-5-55-----------------------|

|---------------------------|
|------------------5-5-2-2--|
|-3-3-33-3---2-2-0----------|
|----------3----------------|
tengo dos manos...........
|-------------------------------------------------------------|
|-------------------------------------------------------------|
|-3-3-33-3---3-3-33-2-------------------6-7-7-77-7-10-1010-7/-|
|----------3----------5-5-55-5-0-5-5-55-----------------------|

|----------------------------|
|----------------------------|
|-3-3-33-3---3-3-3-3-2-2-2-2-|
|----------3-----------------|

Soledad me estas matando........
|--------------------------------------------------------|
|---------------------------------------------------10-9-|
|-----------------7-7-7-7-7-7-7-7-10-10-10-10-10-10------|
|-5-5-5-5-5-5-5-5----------------------------------------|

regresa que me estoy muriendo................
|--------------------------------------------------|
|-7-7-7-7-7-7-7-7----------------------------------|
|-----------------7-7-7-7-7-7-7-7-10--10-------10/-|
|--------------------------------------------------|

Coro

|-------------------------------------------|
|-------------------------------------------|
|-3-3-33-3-2------------------------------2-|
|------------5-5-55-5-3-1-1-11-1-3-3-33-3---|

ay mis ojos................

|---------------------------------------|Se repite
|---------------------------------------|
|---------------------------------------|
|-5-5-55-5-0-5-5-55-5-3-3-33-3-3-3-33-3-|

y despues esto

|----------------|
|----------------|
|----------------|
|1-1-1-1-3-3-3-3-|
el solo de guitarra.....se toca esto

|-------------------------------------------------------------|
|-------------------------------------------------------------|
|-3-3-33-3---3-3-33-2-------------------6-7-7-77-7-10-1010-7/-|
|----------3----------5-5-55-5-0-5-5-55-----------------------|

|---------------------|
|---------------------|
|-3-3-33-3---3-3-33---|
|----------3--------3-|

despues esto

tengo dos ojos........
|---------------------------------------------|
|----------------------------9----------------|
|-3---3-3---2-----------6-7----7---10---10/-3-|
|--------------5---5-5------------------------|
|----------------------------|
|----------------------------|
|-3-3-33-3---3-3-3-3-2-2-2-2-|
|----------3-----------------|

Soledad me estas matando........
|--------------------------------------------------------|
|---------------------------------------------------10-9-|
|-----------------7-7-7-7-7-7-7-7-10-10-10-10-10-10------|
|-5-5-5-5-5-5-5-5----------------------------------------|

regresa que me estoy muriendo................
|--------------------------------------------------|
|-7-7-7-7-7-7-7-7----------------------------------|
|-----------------7-7-7-7-7-7-7-7-10--10-------10/-|
|--------------------------------------------------|

luego el coro

y termina con las notas del intro....


¡¡¡¡¡¡¡VIVA MEXICO y VENEZUELA!!!!!!!
Suggest correction
Give kudos to tab author, rate the tab!
1 2 3 4 5
comments
print report bad tab
guest
You may want to rate the tab now too:
select rating
Wanna post a correction for this tab? Suggest correction