Oops, an error
Loading. Please wait.

Mis Ojos Tab

version 5
version 5

Whole song

13 views 1 this week
no commentswrite comment
1 2 3 4 5
2 more votes to show rating
add to favorites
launch autoscroll
font size
0
reset
how to read this tab
guitar tuner
Autoscroll
slow
fast
+/-
esc
set tempo
stop
Help us to improve Ultimate-Guitar.com Take our survey!
×
HOLA AMIDOS!!! APARECI DE VUELTA CON UNA ROLA DE MANÁ QUE ESTA
DE BUENA ASI QUE ESPERO QUE LES GUSTE ESTA TRANSCRIPCIÓN
OK AHI LES VA:
===========================COMIENZO============================
INTRO: (EN EL INTRO SE HACE SOLAMENTE ESTE PUNTEO)

1.--------------------------------|
2.-----5----------5--5-6--5-------|
3.---5---5------7------------5----| (X3)
4.-5------5--5-----------------5--|
5.--------------------------------|
6.--------------------------------|

1.--------------------------------|
2.-----5---------5--5-6--5--------|
3.---5---5------7------------5----|
4.-7-------7--7-------------------|
5.--------------------------------|
6.--------------------------------|

 VEROSOS:

        C
Gracias a Dios
             Am
que me dio mis ojos
               F    G
que me dio mi boca
                 C
que me dio toda mi piel.

  G    C
Tengo dos piernas
               Am
para recorrer el mundo
                   F
por los mares mas profundos
G               C
para llegar hasta ti.

(Am G F G)

        C
Gracias al cielo
             Am
no olvido ponerme nada
               F
tengo pies tengo mi espalda
G            C        G
y tambien mi corazon.


      C
Tengo dos manos
          Am
para recorrer tus muslos
            F
tus colinas tu cintura
G           C
para tocarte la piel.

PRECORO.
  Am               Em
Soledad me estas matando
F                         G
me duele la piel por no tocarte
Am                      Em
regresa que me estoy muriendo
 F
de que me sirven mis ojos
G                C
si no te pueden ver

CORO:
              Am
no te pueden ver
              F            G
no te pueden ver (mis ojos)
              C
no te pueden ver
              Am
no te pueden ver
              F            G
no te pueden ver (mis ojos)
              Am
no te pueden ver

        G
ay, mis ojos
              Am
no te pueden ver
              G
noro no no no no
F       G     C         Am-F-G-C
no te pueden ver.

(AHORA EL SOLO)

SOLO: (CON DISTORCIÓN)
1.----------------------------------------------------|
2.----------------------------------------------------|
3.----------------------------------------------------|
4.-------------5--7-5-----------------------------5~--|
5.-----5--5-7---------7--5--3-x--5-3---5/7------------|
6.----------------------------------------------------|


1.-------------------------------------------------------------|
2.-----------------------------------------------------10*8----|
3.-------------------------5-7/9--7-5-7-5-7/9--9-9-------------|
4.---------------------5---------------------------------------|
5.-7/3~-3-3-5-3-5/7--------------------------------------------|
6.-------------------------------------------------------------|

1.------------------------------------------------------------------|
2.-----------------------1--1-3/5-3----0-1---3--3/5-1~--------------|
3.9-7-9-7-----------0-0-2-----------0-----0---0--------2-0----------|
4.--------10-8-----------------------------------------------2-0----|
5.--------------10----------------------------------------------2/13|
6.------------------------------------------------------------------|

  G       C
Tengo dos ojos
               Am
los que ven el universo
                         F
los que lloran por tu ausencia
G            C
y te buscan sin parar.


PRECORO.
  Am               Em
Soledad me estas matando
F                         G
me duele la piel por no tocarte
Am                      Em
regresa que me estoy muriendo
 F
de que me sirven mis ojos
G                C
si no te pueden ver

CORO:
              Am
no te pueden ver
              F            G
no te pueden ver (mis ojos)
              C
no te pueden ver
              Am
no te pueden ver
              F            G
no te pueden ver (mis ojos)
              Am
no te pueden ver

              Am
no te pueden ver
              F            G
no te pueden ver (mis ojos)
              C
no te pueden ver
              Am
no te pueden ver
              F            G
no te pueden ver (mis ojos)
              Am
no te pueden ver
Ah ah uh uh uh. C
==============================FIN==============================
BUENO AMIGOS AHORA YA LA PUEDEN TOCAR COMPLETA OK ESPERO QUE LES
SALGA EL SOLO SE OYE MUY PARECIDO SIE TIENE ERRORES ME AVISAN
OK!!! "practiquen" OK CHAÚ.

LEANDRO_TRANSCRIPCIONES@  20/01/06  15:12hs
 CHAÚ!!!!!
Suggest correction
Give kudos to tab author, rate the tab!
1 2 3 4 5
comments
print report bad tab
guest
You may want to rate the tab now too:
select rating
Wanna post a correction for this tab? Suggest correction