Oops, an error
Loading. Please wait.

No Ha Parado De Llover (Unplugged) Chords

version 1
version 1

Whole song

422 views 3 this week
no commentswrite comment
1 2 3 4 5
3 more votes to show rating
add to favorites
launch autoscroll
font size
0
reset
transpose
0
reset
simplify chords
display chords
guitar tuner
×
Best way to learn
"No Ha Parado De Llover (unplugged)"
Autoscroll
slow
fast
+/-
esc
set tempo
stop
Escuchen bien la canción, porque no especifico mucho, cuántas veces se repiten los arpegios,
u otras partes y también les aconsejo que vean los ACORDES de esta canción que también los 
mandé a esta genial página de ÁTAME. 


INTRO

-----------------0-¦   ----------------0-¦   ----------------0---¦    ----------------0----¦
---3-3-2-2-0---2---¦   -3-3-2-2-0---2----¦   --3-3-2-2-0---2---2-¦    ---3-3-2-2-0---2--2--¦
---2-2-2-2-2-2-2---¦x2 -0-0-0-0-0-0-0----¦x2 --2-2-2-2-2-2-2----2¦x2  ---0-0-0-0-0-0-0---2 ¦x2
-------------------¦   ------------------¦   --0-----------------¦    ---0-----------------¦
-------------------¦   ------------------¦   --------------------¦    ---------------------¦
-------------------¦   ------------------¦   --------------------¦    ---------------------¦

La guitarra sólo hace esto. Son los violines los que le dan más melodía

--------------------------0---2-0---------------------------0---2---¦    la segunda vez no se toca
----3--3--3--3--3---3--3-------------3--3--3--3--3---3--3-----------¦    la última nota
---2--2--2--2--2---2--2--2---2------2--2--2--2--2---2--2--2---2-----¦x2
--------------------------------------------------------------------¦
--------------------------------------------------------------------¦
--------------------------------------------------------------------¦

Pero si quieres darle un poco de melodía al punteillo para que quede como el de los violines:


--------------------0---2-0---2-2-3-3-3-----2---2---0---2--0--¦    la segunda vez no se toca
----3-3-3-3-3--3-3-----------0-0-0-0-0-- ---------------------¦    la última nota
---2-2-2-0-0--2-2-2--2--------------------2---2---2---2-------¦x2
--------------------------------------------------------------¦
--------------------------------------------------------------¦
--------------------------------------------------------------¦


ARPEGIO INICIAL: ('Desde que te perdí, la luz....... y en mis ojos no ha parado de llover')

      D9                A9               Sim7mj               G6
---------x-----------------------------------------------------------x----------¦
-------x---x---x-----------x------------------x--------------------x---x--------¦
-----x-------x-----------x---x---x----------x---x---x------------x-------x------¦
---x-------------------x-------x----------x-------x------------x----------------¦
---------------------x------------------x---------------------------------------¦
------------------------------------------------------------x-------------------¦


Después que se canta por 2º vez el coro

--10--9-9-7---9-9-¦     --10--10---9---9---7------9--9---9---¦    ---2-3-2-0------¦
---8--8-8-8-8-8-8-¦     --10--10--10--10--10-10--10---10-----¦    -----------3----¦
------------------¦x2   -------------------------------------¦x2  ----------------¦
------------------¦     -------------------------------------¦    ----------------¦
------------------¦     -------------------------------------¦    ----------------¦
------------------¦     -------------------------------------¦    ----------------¦


ARPEGIO FINAL ('No para de llover') 

-----10----10----10----10-------10----10----10----10--------¦
---10----10----10----10-------10----10----10----10----------¦
-11----12----11----12----12-11----12----11----12------------¦x4
------------------------------------------------------------¦
------------------------------------------------------------¦
------------------------------------------------------------¦


ACORDES A UTILIZAR

D9 = D9            

E -------------        
B ---3---------      
G ---2---------     
D -------------     
A -------------      
E -------------      

A9 = A9

E -------------
B -------------
G ---2---------
D ---2---------
A -------------
E -------------

G6 = G6

E -------------
B ---3---------
G -------------
D -------------
A ---2---------
E ---3---------

B-7mj = Sim7mj (Si menor con séptima mayor)

E -------------
B ---3---------
G ---2---------
D -------------
A ---2---------
E -------------

Ojalá les guste, y mejor todavía, ojalá que se puedan coordinar al tocarla con 2 guitarras.
Una que haga los acordes y la otra estas tablaturas. Sale bien, porque ya la he tocado con un
amigo y no se escucha nada de mal (Es un unplugged casero).
Si necesitan los acordes los tengo escritos aquí también.

Chao
Carlos Arriagada
Suggest correction
Give kudos to tab author, rate the tab!
1 2 3 4 5
comments
print report bad tab
guest
You may want to rate the tab now too:
select rating
Wanna post a correction for this tab? Suggest correction