Oops, an error
Loading. Please wait.

No Ha Parado De Llover (Unplugged) Bass

by Maná
58 views 1 this week
no commentswrite comment
1 2 3 4 5
3 more votes to show rating
add to favorites
×
Save as Personal and add changes to this tab that will be seen only by you. Learn more ›
×
You can save this tab as Personal to edit and correct it or add notes. All changes will be seen only by you. Learn more »
save as personal
new!
launch autoscroll
font size
0
reset
guitar tuner
Autoscroll
slow
fast
+/-
esc
set tempo
stop
KE ONDA, BUENO ALLI LES MANDO ESTA TAB PARA BASS
ESTA FACIL, PERO ESCUCHENLA BIEN, PARA QUE METAN BIEN 
LOS TIEMPOS Y TODAS ESAS MADRES. BYE SE CUIDAN
dedicada para una chava especial

INTRO
ENTRA DESPUÉS DE LA BATERIA
(HAGAN COMO HARMONICOS CUANDO ES AL AIRE, PERO MUY LEVE)

G--------------------------------------------------
D--------------------------------------------54----
A-5(0)5(0)5(0)5(0)54--2-2-2(0)-2---------------5---
E--------------------------------3-3--3-(0)-3------
  D                  B          G

G------------------------------------------------
D------------------------------------------------
A-5(0)5(0)5(0)5(0)54--2-2-2(0)-2------------5----
E---------------------------------3-3--3-(0)-----
  D                   B           G
VERSO: 
SE QUE TE PERDI, LA LUZ SE HA PUESTO MUY MOJADA
MIRADA TRISTE ESTA NUBLADA

Y EN MIS OJOS NO HA PARADO DE LLOVER...
G-------------------------------
D-------------------------------
A-5(0)5(0)5(0)5(0)5(0)5---------
E-------------------------------
  A
SOLO YA SIN TI...
G----------------    ---------------
D----------------    --44-2--------- 2 VECES ESTA PARTE
A--5----2--------    -5-----2-------
E------------3---    --------3------
   D    B    G        D      G
QUIEN DETENDRA LA LLUVIA EN MI...
G-------------------------------
D-------------------------------
A-2--22-------------------------
E-------3-3-33-3--5-55-2-22-----
  B     G         A    F#
G-------------------------------
D---------------------------5-4-
A-2--22-------------------------
E-------3-3-33-3--5-55-2-22-----
  B      G        A                 OH MI AMOR...
G-------------------------------  ---------------------------
D-------------------------------  ---------------------------
A-2--22-------------------------  ---------------------------
E-------3-3-33-3--5-55-2-22-----  -3-33-3-33-33-3--5-55-555--
  B     G          A               G               A
CORO: LE SIGUE LLOVIENDO...
SE TOCA IGUAL QUE EL INTRO

QUE EN MIS OJOS NO HA PARADO DE LLOVER...
G-----------------------  ---------
D-5-5-55-5-5---7-777-77-  -454-----
A-----------------------  -----55--
E-----------------------  ---------
  G            A
INTERLUDE
G------------------------------
D------------------------------
A------------------------------  2 VECES
E-3-33-333-33-3-33-5-55-55-5---
  G                   A
Y LUEGO LA MISMA FIGURA
G--------------
D-454----------
A-----55-------
E--------------

DESPUES SIGUE EL CORO

Y LA ULTIMA PARTE SE TOCA MAS PAUSADO
G-------------------------
D-------------------------
A-5-5-5--2-22-------------
E-------------333-33------
   D      B    G
FIN
G-------
D-------
A--5----
E-------
   D
Suggest correction
Give kudos to tab author, rate the tab!
1 2 3 4 5
comments
print report bad tab
guest
Wanna post a correction for this tab? Suggest correction