Oops, an error
Loading. Please wait.

No Te Rindas Tab

version 1
version 1

Whole song

by Maná
97 views 1 this week
no commentswrite comment
1 2 3 4 5
3 more votes to show rating
add to favorites
launch autoscroll
font size
0
reset
how to read this tab
guitar tuner
×
Best way to learn
"No Te Rindas"
Autoscroll
slow
fast
+/-
esc
set tempo
stop
Ps solo saque el intro e intermedio de esta exelente cancion,
se escucha bien.


INTRO:

e|-----------------------------------------------------|
B|---2-0--------2-0------------------------------------|
G|-----------------------------------------------------|
D|-2-----2~---2-----1h2~--2h4-2~--------------1h2------|
A|---------------------------------2--4-5-4-2-----2~---|
E|-----------------------------------------------------|

e|---------------------------------|
B|---------------8/9-77-55-33-22---|
G|---------------------------------|
D|---------------------------------|
A|-2--4-5-4-2----------------------|
E|---------------------------------|


Aki es cuando sube de tono
INTERMEDIO:

e|--------------------------------|
B|---4-2--------4-2---------------|
G|--------------------------------|
D|-4-----4~---4----3h4~--4h6-4~---|
A|--------------------------------|
E|--------------------------------|


+++++++++++++*******************+++++++++++++
Ps es todo, saludos a Azael, Carlos y Ricardo, de Chachapa Pue.
*In*
Suggest correction
Give kudos to tab author, rate the tab!
1 2 3 4 5
comments
print report bad tab
guest
You may want to rate the tab now too:
select rating
Wanna post a correction for this tab? Suggest correction