Oops, an error
Loading. Please wait.

No Te Rindas Tab

version 2
version 2

Whole song

55 views 6 this week
no commentswrite comment
1 2 3 4 5
3 more votes to show rating
add to favorites
launch autoscroll
font size
0
reset
how to read this tab
guitar tuner
×
Best way to learn
"No Te Rindas"
Autoscroll
slow
fast
+/-
esc
set tempo
stop
intro:
      A    C#m    Bm        E    Bm
e----------------------------------------------
B----------------------------------------------
G--6-4---6-4-----------------------------------
D-------------2/4/2----------------------------
A-7---7-7---7--------4-5-4--7------4-5-4-------
E-------------------7------7-7---7------7------
  E            A
e--------------------------------------
B-9/7/7/6/6/3/3/2----------------------
G-9/7/7/5/5/4/4/2----------------------
D--------------------------------------
A--------------------------------------
E--------------------------------------
A                         C#m
no te me rindas mi vida duerme esperando otro dia
              Bm
que saldra el sol
E              Bm  E           Bm   E                  A
no te rindas amor resistir el dolor yo que te quiero a morir
A                              C#m
voy a sembrar en tu herida una flor yo tratare de curar
          Bm    E          Bm   E           Bm    E
todo ese dolor tenme fe corazon esperanza y valor yo que te quiero
e-----0-----------0-----------------------------------2-------
B----0-0---------2-2----------3-----------3----------3-3------
G---2---2-------1---1----4---4-4-----4---4-4---4----4---4---4-
D--------------2------1/2---4---4-1/2---4---4-1/2--4-----1/2--
A-0--------0--------------------------------------------------
E-------------------------------------------------------------
     A
A morir
e----------------------
B----0-------0---------
G---2-2-----2--2-------
D--2-------2-----------
A-0--------------------
E----------------------
D       A      D      A        E               A
va aaaaaa amanecer va aaaaaaa sanar te voy a curar me extrañas
        C#m                      D
tanto tanto pero aguanta corazon
e------------0------0-----0--0--0-0-2--2-4---4-4-5-5-4-4-
B--3--3-3-2-2-2---0--0-0-0-0--0------------5-------------
G-2-2--2---2---2-2-2--2-2---1----1----1---4-4-4---4---4--
D--------------------------------------------------------
A--------------------------------------------------------
E--------------------------------------------------------
  A         D     A   E             A
tuuuu soledad se vaaaaa te voy a curar.
e---------------7----------------7----7-7-7-----------
B---10---9-9---9-9---10--10-9---9-9--------10-10-9-10-
G-/9--9---9-9-9---9-9--9---9-9-9---9-9-9-9---9----9--- GUITARRA 1
D-----------------------------------------------------
A-----------------------------------------------------
E-----------------------------------------------------

e---------10-10-10-10-------------------------------
B---------10-10-10-10------------------9-9-9-9-10---
G-7-11--9-9--9--9--9---7--11--9------9-9-9-9-9-9----  GUITARRA 2
D--7--------------------7----------9--9-------------
A-----------------------------------11--------------
E---------------------------------------------------

CORO:(TODOS LOS RIFFS VAN SECUENCIALES)
                 D
No te rindas mi vida
e----0---
B---3-3--
G--2---2-
D-0------
A--------
E--------
              E
siembra unas flores
e----2---
B---5-5--
G--4---4-
D-2------
A--------
E--------
                 A
de amor en tu herida
e----------
B----------
G----4-----
D---7-7----
A--7---7---
E-5--------
      C#m
ay corazón,
e----------
B----------
G----4-----
D---7-7----
A--7---7---
E----------
D                           E
siempre habrá un nuevo amanecer.
e----0---------------
B---3-3--------5-----
G--2---2------4-4----
D-0----------6---6---
A-----------7--------
E--------------------
             A-A7
Te amo a morir.
e----------
B----------
G----4-----
D---7-7---- GUITARRA 1
A--7---7---
E-5--------

e-5-4-3----
B-5-5-2----  GUITARRA 2
G----------
D----------
A----------
E----------
                D
No te rajes mi vida
e----2---
B---5-5--
G--4---4-
D-2------
A--------
E--------
              E
siempre la suerte
e----2---
B---5-5--
G--4---4-
D-2------
A--------
E--------
                 A
nos cambia, nos gira
e----------
B----------
G----4-----
D---7-7----
A--7---7---
E-5--------
        C#m
ay corazón
e----------
B----------
G----4-----
D---7-7----
A--7---7---
E----------
D                          E
siempre habrá un nuevo amanecer.
e----0---------------
B---3-3--------5-----
G--2---2------4-4----
D-0----------6---6---
A-----------7--------
E--------------------
         A
Sale el Sol.
e------------
B----0-------
G---2-2----3-
D--2---2--4--
A-0------4---
E------------
intro:
       B    D#m
e--------------------
B--------------------
G--8-6---8-6---------
D--------------4/6/4-
A-9---9-9---9--------
E--------------------
B
No te me rajes mi vida mi amor
                   D#m
eres un roble valiente
               C#m-F#
con la cara al sol,
e---------------
B---5-----------
G--6--6-----6---
D-6----6-3/4----
A---------------
E---------------
              C#m-F#
vamos a resistir
E---------------
B---5-----------
G--6--6-----6---
D-6----6-3/4----
A---------------
E---------------
                  C#m-F#
como el arbol de pie,
E----4----------
B---5-----------
G--6--6-----6---
D-6----6-3/4----
A---------------
E---------------
                     B
ponte de pie hasta morir.
e---------------
B----4------2---
G---4-4----4-4--
D--4---4--4---4-
A-2------2------
E---------------
E   B  E    B      F#                        D#m
Va a amanecer uhh aha  Yo se que te pega el dolor
                                 E
tu sabes que vamos, tu sabes corazón
e-----------2------2------2------2-2-4-4-6-----6-6-7-7-6--6--
B--5-5-5-4-4-4---2--2----2-2---2-------------7---------------
G-4-4-4---4---4-4-4--4--4---4-3-3-3---3----/6-6-6---6----6--- GUITARRA 1
D------------------------------------------------------------
A------------------------------------------------------------
E------------------------------------------------------------

e---------------------------------------------------------
B---------------------------------------------------------
G---------------------------------------------------------
D-14-14-14-14/16-16-16-16/18-18-18-18-18/20-20-20-20-20--- GUITARRA 2
A-14-14-14-14/16-16-16-16/18-18-18-18-18/20-20-20-20-20---
E-12-12-12-12/14-14-14-14/16-16-16-16-16/18-18-18-18-18---

e--------------------------------------------------------
B--------------------------------------------------------  GUITARRA 2
G--------------------------------------------------------
D-14-14-14--14-14-14/16-16-16-16/18-18-18-18/16-16-16-16-
A-14-14-14--14-14-14/16-16-16-16/18-18-18-18/16-16-16-16-
E-12-12-12--12-12-12/14-14-14-14/16-16-16-16/14-14-14-14-

e---------------------------------------
B---------------------------------------  GUITARRA 2
G---------------------------------------
D-/18-18-18-18/20-20-20-20/22-22-22-22--
A-/18-18-18-18/20-20-20-20/22-22-22-22--
E-/16-16-16-16/18-18-18-18/20-20-20-20--

e--------------------------------------------------
B--------------------------------------------------
G--------------------------------------------------  GUITARRA 2
D-16-16-16-16/18-18-18-18/20-20-20-20/22-22-22-22--
A-16-16-16-16/18-18-18-18/20-20-20-20/22-22-22-22--
E-14-14-14-14/16-16-16-16/18-18-18-18/20-20-20-20--
       B       F#           B
tu soledad se va. Se va, se va.
e---------------------9-----------------------9--------9--9--9-------
B----12-----12--11--11-11------12---12--11--11--11------------12--12-
G-/11--11-----11--11-----11-/11--11---11--11------11-11-11-11---11---
D--------------------------------------------------------------------
A--------------------------------------------------------------------
E--------------------------------------------------------------------

e------------
B-11--11-12--
G---11------- GUITARRA 1
D------------
A------------
E------------

e---------12-12-12-12-----------------------------------------------
B---------12-12-12-12------------12-12-12-12---------11-11-11-11-12-
G-9-13-11-11-11-11-11----9-13-11-11-11-11-11-----11--11-11-11-11-11-
D--9----------------------9------------------11----11---------------
A----------------------------------------------13-------------------
E-------------------------------------------------------------------

CORO:(REPITE LOS MISMOS RIFFS DEL CORO ANTERIOR UN TONO MAS ALTO)
                E
No te rindas mi vida
                F#
siembra unas flores
                 B
de amor en tu herida
D#m
ay corazón
E                           F#
siempre habrá un nuevo amanecer.
            B
Te amo a morir.

                E
No te rajes mi vida
               F#                  B
siempre la suerte nos cambia nos gira
D#m
ay corazón
E                           F#
siempre habrá un nuevo amanecer.
          E-F#
Sale el sol.
e-----------2---
B----0-------2--
G---2-2----3--3- AQUI CAMBIA
D--2---2-------- (RASGUEA CON FUERZA LA GUITARRA 2)
A-0------4------
E---------------
E                 F#
No te rindas mi amor
e--------
B-4------
G-5------
D-6------
A-7------
E--------
       B                  D#m
es la vida un milagro de Dios
E                F#
ve cantando las penas
               B-D#m
y suelta el dolor.

E         F#
va Amanecer.
                 B
Pronto llega el sol.
       D#m              E
Con la esperanza de amanecer,
      F#
de renacer,
              B
no te rindas amor.
Suggest correction
Give kudos to tab author, rate the tab!
1 2 3 4 5
comments
print report bad tab
guest
You may want to rate the tab now too:
select rating
Wanna post a correction for this tab? Suggest correction