Oops, an error
Loading. Please wait.

No Voy A Ser Tu Esclavo Tab

by Maná
94 views 1 this week
no commentswrite comment
1 2 3 4 5
3 more votes to show rating
add to favorites
launch autoscroll
font size
0
reset
how to read this tab
guitar tuner
×
Best way to learn
"No Voy A Ser Tu Esclavo"
Autoscroll
slow
fast
+/-
esc
set tempo
stop
Esta cancion me gusta pero casi no es conocida y el solo esta
facil pero se oye chilo, pondre el primero por k me da wewa
seguir escribiendo pero si kieren k lo ponga hay me hechan un
grito; Y UN SALUDO PARA LA RAZA DE MAZATLAN SINALOA ...
" LA PRESICION ESTA ANTES K LA VELOCIDAD "

- este es el intro k va en casi toda la cancion:

e|---------------------------------------|
B|-----1-----1-----1-----3-----3-----3---|
G|---2---2-------0-----2---2-------1-----|
D|-2-------2---2-----3-------2---2-------|
A|---------------------------------------|
E|---------------------------------------|

No me crucifiques,

con los clavos del amor mi morena,

no soy de tu propiedad mi reina

y no voy a ser tu esclavo


-aki inicia el bajeo :

[ch]B siempre te Amé[/ch]

por estar atado al corazón

no voy a ser el otro eslavon

de tu colección de esclavos

no no no no no no no

-y aki los teclados pero sigue tocando la lira el intro :


Mujer hermosa

eres una reina peligrosa

eres las espinas de una rosa

me matas amor


Mujer hermosa

eres una reina peligrosa

eres las espinas de una rosa

más no voy a ser tu esclavo


Eres una reina

una princesa del amor

donde pierdo entre tus muslos la razón

mujer eres magia negra

no no no no no


Mujer hermosa

eres una reina peligrosa

eres las espinas de una rosa

me matas amor


Mujer hermosa

eres una reina peligrosa

eres las espinas de una rosa

me matas amor

- el signo de "*" sig. k en esa parte pueden ser mas o' menos
las veces k se repite ese tono en esa parte!

- esta parte entra la 2ª.guitarra, es el presolo? y la 1er.
lira toca lo sig. arpegeado :

 1. Dm-G-C
Ay! no quiero ser esclavo del amor

 2. Fm Dm
Ay! yo quiero escaparme del dolor

 3. G-Am-E
Ay! no sé que hacer no sé no séeeee
     1.               2.                3.
e|-----------------|-----------------|-----------------------|
B|-----5-6-5-------|-----------------|-10/12-13-15-13-12-13~-|
G|-5-7-------7-7/9-|-4-5-5h7-5-4-5/7-|-----------------------|
D|-----------------|-----------------|-----------------------|
A|-----------------|-----------------|-----------------------|
E|-----------------|-----------------|-----------------------|
                *
e|-----------------------------------|
B|-12h13p12h13p12h13p12h13p12h13p12--|
G|-----------------------------------|
D|-----------------------------------|
A|-----------------------------------|
E|-----------------------------------|

1er. Solo:
e|------------------------------------------|
B|---------------------10-----10-10---------|
G|-7/9-9-9-9-5---5-7/9----7/9-------9/7-5---|
D|-------------7--------------------------7-|
A|------------------------------------------|
E|------------------------------------------|
                  *                                 *
e|----------------------------------10----10-10p12-10p12-10p12-|
B|-10/12-13-12-13-12-13-12-13-12-13----13----------------------|
G|-------------------------------------------------------------|
D|-------------------------------------------------------------|
A|-------------------------------------------------------------|
E|-------------------------------------------------------------|
           *
e|-12-12-12-12-12-12-13-12--12-12-13-12-10--------|
B|-----------------------------------------13-12--|
G|------------------------------------------------|
D|------------------------------------------------|
A|------------------------------------------------|
E|------------------------------------------------|
         X2
  .______________.
e|-----------------------------------------------------------|
B|----12-15/17-17----15-13-12--------------------------------|
G|-14-------------------------14-12-10-9---------------------|
D|---------------------------------------12-10-9-------------|
A|----------------------------------------------12-10--------|
E|----------------------------------------------------12-10--|


Mujer hermosa

eres una reina peligrosa

eres las espinas de una rosa

me matas amor


Mujer hermosa

eres una reina venenosa

eres las espinas de una rosa

más no voy a ser tu esclavo

ahi me hechan el grito si se les complica algo :
      "slash_skeleton@
Suggest correction
Give kudos to tab author, rate the tab!
1 2 3 4 5
comments
print report bad tab
guest
You may want to rate the tab now too:
select rating
Wanna post a correction for this tab? Suggest correction