Oops, an error
Loading. Please wait.

Ojala Pudiera Borrarte Tab

version 4
version 4

Whole song

Interactive

by Maná
53 views 1 this week
no commentswrite comment
1 2 3 4 5
3 more votes to show rating
add to favorites
×
Save as Personal and add changes to this tab that will be seen only by you. Learn more ›
×
You can save this tab as Personal to edit and correct it or add notes. All changes will be seen only by you. Learn more »
save as personal
new!
launch autoscroll
font size
0
reset
how to read this tab
guitar tuner
Autoscroll
slow
fast
+/-
esc
set tempo
stop
___ acordes ___
|               |
|  G:   320033  |
|  G7 : 320032  |
|  C:   032010  |
|  Em:  022000  |
|  D:   000232  |
|  Bm:  224432  |
|  Am:  002210  |
|_______________|


        G       G      G7            [x5]
E-||----3-------3-------2-------|
B-||----3-------3-------3-------|
G-||----0-------0-------0-------|
D-||----------------------------|
A-||----------------------------|
E-||----------------------------|


G      G     G7             C
          Ojalá y te me borraras de mis sueños
D                  G     G     G7 
   Y poder desdibujarte
G      G     G7               C
          Ojalá y pudiera ahogarte en un charco
  D                G     G     G7 
Lleno de rosas y amor
G      G     G7              C
          Ojalá y se me olvidara hasta tu nombre
D                       G     G     G7 
   Ahogarlo dentro del mar
G      G     G7              C
          Ojalá y que tu sonrisa de verano
 D                G     G     G7 
Se pudiera ya borrar


  Em    D   C
Vuelve corazón
         G                Bm
Uh uh uh uh, vuelve a mi lado
  Em    D   C
Vuelve corazón
     Em                   Bm
No vuelve, no vuelve, no vuelve, no


C                    G                        Bm
   Ojalá y te me borraras para siempre de mi vida
                    Em
Para no volverte a ver
C                      G                          Bm
   Y ojalá y te me borraras por las noches en el día
                    Em
Para no volverte a ver
C                       G                         Bm
   Y ojalá y te me esfumaras de mis sueños, vida mía
                    C
Para no volverte a ver
 D          G
No, ni en sueños


[solo]
    G              C            D          G
E-||---------------------------|-------------------------|
B-||-------------3-3-3/5-------|-------------------------|
G-||---------4-5---------------|----2-4-5--5-----4-2-4---|
D-||-4/5--------------------5/4|-----------------------0-|
A-||---------------------------|-------------------------|
E-||---------------------------|-------------------------|

    G               C        D                  G
E-||------------------------|-------5--5-------------|
B-||------------------8-----|---------------8/7-8----|
G-||--2/4---4--4--7-7---4-5-|---5/7------------------|
D-||-------5--5-------------|------------------------|
A-||------------------------|------------------------|
E-||------------------------|------------------------|


E-||-10---------------------|
B-||--------8---------------|
G-||----------------5-------|
D-||------------------------|
A-||------------------------|
E-||------------------------|
   Como puedo yo borrar tus besos vida

E-||------------------7-----|
B-||-7----------------8-----|
G-||-7----------------------|
D-||---------7--------------|
A-||------------------------|
E-||------------------------|
   Están tatuados en mi piel

E-||-7-----------------3----|
B-||------------------------|
G-||---------4---------5----|
D-||-5----------------------|
A-||------------------------|
E-||------------------------|
   Quiero de una vez por todas, ya largarte

E-||------------------------|
B-||------------------8-----|
G-||--7---------------------|
D-||----------7-------9-----|
A-||------------------------|
E-||------------------------|
Y borrarte de mi ser

G      G     G7           C
   Ojalá y la lluvia me ahogue entre sus brazos
D                     G     G     G7 
   Para no pensar en ti
G      G     G7     C
   O que pase un milagro o pase algo,
  D                 G     G     G7 
Que me lleve hasta ti


  Em    D   C
Vuelve corazón
         G                Bm
Uh uh uh uh, vuelve a mi lado
      Em              D         C
Pero no, no, no, no Vuelve corazón
     Em                   Bm
No vuelve, no vuelve, no vuelve, no


C                    G                        Bm
   Ojalá y te me borraras para siempre de mi vida
                    Em
Para no volverte a ver
C                      G                          Bm
   Y ojalá y te me borraras por las noches en el día
                    Em
Para no volverte a ver
C                       G                         Bm
   Y ojalá y te me esfumaras de mis sueños, vida mía
                     Em
Y que no me lluevas más
C                     G                          Bm
   Y ojalá y que la lluvia me ahogue entre sus brazos
                    C
Para no volverte a ver
 D          Em
No, ni en sueños
C                      D
  Pa? que pares de llover

  G    Am       C   D
Sueños,
  G    Am       C   D
sueños,
  G    Am       C   D
oh oh sueños
  G


###----------------------------------###
### Tablatura de: Enrique Moraño     ###
### Sevilla [Spain]         SEP-2006 ###
###        emorano@       ###
###----------------------------------###
Suggest correction
Give kudos to tab author, rate the tab!
1 2 3 4 5
comments
print report bad tab
guest
Wanna post a correction for this tab? Suggest correction