Oops, an error
Loading. Please wait.

Ojala Pudiera Borrarte Bass Tab

version 1
version 1

Whole song

Interactive

64 views 1 this week
no commentswrite comment
1 2 3 4 5
3 more votes to show rating
add to favorites
launch autoscroll
font size
0
reset
guitar tuner
Autoscroll
slow
fast
+/-
esc
set tempo
stop
Help us to improve Ultimate-Guitar.com Take our survey!
×
la anterior estaba mal porke la skala no era asi

Intro
E|-----|---|----|
A|-----|---|----|
D|-----|---|-5--|
G|-2h5-|-7-|----|

Ojala y te me
E|----|---|----|
A|----|---|----|
D|----|---|-5--|
G|--5-|-7-|----|

..............................Ojala y se me olvidara"
E|-12-14------------------|----|----|----------|--------------|
A|-----12-14--------------|----|----|----------|-10-------10--|
D|----------12-14---------|----|----|----------|----10-12-----|
G|---------------12h14/16-|-14-|-12-|-11h12-11-|--------------|

Ojala y que tu sonrisa  ..borrar..
E|-------|----|-----|   |---------|
A|-------|----|-10--|   |--15-17--|
D|--9-10-|-12-|-----|   |---------|
G|-------|----|-----|   |---------|

  Vuelve cora   zon
E|------|-----|-----|-3---------|-3-3--3-3-|-----|-----|-3----------|
A|--5-7-|-3-5-|-3-3-|---3-3-3-5-|----------|-3-5-|-3-5-|---3-3-3-5--|
D|------|-----|-----|-----------|----------|-----|-----|------------|
G|------|-----|-----|-----------|----------|-----|-----|------------|

Vuelve corazon            No vuelve
E|------|-----|-----|   |----|---|-7--7-7--|
A|--5-7-|-3-5-|-3-3-|   |--7-|-9-|---------|
D|------|-----|-----|   |----|---|---------|
G|------|-----|-----|   |----|---|---------|

Ojala y te me
E|-----------|-3-3--3-3-|----------|---------------|
A|--3-3--3-3-|----------|-2-2--2-2-|-----2------3--|
D|-----------|----------|----------|-2-2--2-2-0----|
G|-----------|----------|----------|---------------|

y ojala
E|-----------|-3-3--3-3-|----------|---------------|
A|--3-3--3-3-|----------|-2-2--2-2-|-----2---------|
D|-----------|----------|----------|-2-2--2-2-0-2--|
G|-----------|----------|----------|---------------|


y ojala y te me esfumaras
E|-----------|-3-3--3-3-|----------|----------|----------------|
A|--3-3--3-3-|----------|-2-2--2-2-|-3-3--3-3-|-5-5--5-5--3-5--|
D|-----------|----------|----------|----------|----------------|
G|-----------|----------|----------|----------|----------------|

Solo
E|--3-3--3-3-|----------|----------|-3-3--3-3--|
A|-----------|-3-3--3-3-|-5-5--5-5-|-----------|
D|-----------|----------|----------|-----------|
G|-----------|----------|----------|-----------|

E|-3-3--3--3-|-3-3------3-----|------------|-3-3--3-3--3-3--|
A|-----3--3--|--3--3-3----3-3-|-35-5--35-5-|----------------|
D|-----------|----------------|------------|----------------|
G|-----------|----------------|------------|----------------|

Como puedo
E|--3--------|
A|-----2--3--|
D|-----------|
G|-----------|

..ser
E|--3-|-12-14----------------|-----------------|
A|----|------12-14-----------|-----------------|
D|----|-----------12-14------|-----------------|
G|----|----------------14/16-|-14-12-11h12-11--|

E|-----|-12-14----------------|------|----------|----|-3-5---5-3--|
A|--10-|------12-14--14-12/10-|------|----------|-10-|-----3------|
D|-----|-----------12---------|-9-10-|-10/14-12-|----|------------|
G|-----|----------------------|------|----------|----|------------|

Se repite

Vuelve corazon, uh, vuelve a mi lado,
Pero no, no, no, no vuelve corazon,
No vuelve, no vuelve, no vuelve no.

Ojala y te me borraras para siempre de mi vida, para no volverte a ver,
Y ojala y te me borraras por las noches, en el dia para no volverte a ver.
Ojala y te me esfumaras de mis sueños, vida mia, y que no me lluevas mas,
Y ojala y que la lluvia me ahogue entre tus brazos para no volverte a ver,

No, ni en sueños, pa? que pares de llover,
E|------7--------|-------------|-----5-----|
A|--7-7--7-7-3-5-|-3-3--3-3--3-|-5-5--5-5--|
D|---------------|-------------|-----------|
G|---------------|-------------|-----------|

Sueños
E|--3-3-|-----|-----|------|    |--3--|
A|------|-0-0-|-3-3-|-5-5--| x3 |-----|
D|------|-----|-----|------|    |-----|
G|------|-----|-----|------|    |-----|

bueno ps esta cancion s mui facil exepto en las skalas xD
Suggest correction
Give kudos to tab author, rate the tab!
1 2 3 4 5
comments
print report bad tab
guest
You may want to rate the tab now too:
select rating
Wanna post a correction for this tab? Suggest correction