Oops, an error
Loading. Please wait.

Perdido En Un Barco Bass

version 1
version 1

Whole song

Interactive

by Maná
75 views 1 this week
no commentswrite comment
1 2 3 4 5
3 more votes to show rating
add to favorites
×
Save as Personal and add changes to this tab that will be seen only by you. Learn more ›
×
You can save this tab as Personal to edit and correct it or add notes. All changes will be seen only by you. Learn more »
save as personal
new!
launch autoscroll
font size
0
reset
guitar tuner
Autoscroll
slow
fast
+/-
esc
set tempo
stop
Salgo en un crucero hacia el mar... destino el Caribe...
pero este barco no es normal... está en el alucine...


G|-----------|-----------------------------------|
D|-----------|-----------------------------------|
A|-----------|------------5--5-----------7-7-7-7-|
E|-7/2-------|-2-2-2-2-2---------5-5-5-5---------|

           Esto es... solo el sexo femenino está...


G|-----------------------------------|----------------------------------|
D|-----------------------------------|----------------------------------|
A|------------5--5-----------7-7-7-7-|------------5--5----------7-7-7-7-|
E|-2-2-2-2-2---------5-5-5-5---------|-2-2-2-2-2--------5-5-5-5---------|

presente...                           A lo mejor...     esto es un error


              
G|-----------------------------------|
D|-----------------------------------|
A|------------5--5-----------7-7-7-7-|
E|-2-2-2-2-2---------5-5-5-5---------|

o tengo suerte... 


G|----------------|----------------|----------------|-----------------|
D|----------------|----7------7----|----------------|----7------------|
A|----9------9----|-5-----5-5----5-|----9------9----|-5-----5-7--5----|
E|-7-----7-7----7-|----------------|-7-----7-7----7-|---------------5-|

Yo... yo no sé lo que va a suceder... con tanta mujer...


Coro


G|-----------------|----------------|----------------|-------------|
D|-----------------|----------------|----------------|-------------|
A|---5--7-7--5-5---|--5--7-7--5-5---|--5--7-7--5-5---|--9----------|
E|-5-------------5-|--------------5-|--------------5-|-----12-12/2-|

Perdido en un barco, perdido en sus brazos, con este barco en altamar perdido yo...


G|-----------------------------------|----------------------------------|
D|-----------------------------------|----------------------------------|
A|------------5--5-----------7-7-7-7-|------------5--5----------7-7-7-7-|
E|-2-2-2-2-2---------5-5-5-5---------|-2-2-2-2-2--------5-5-5-5---------|


Esta parte va sin bajo:

En el aire una sensación... a coco y piel tostada...
me despierta cierta tentación... me salgo de la cama...


Y el bajo entra de nuevo:

G|------|-----------------|---------------------------------|
D|------|-----------------|---------------------------------|
A|------|---------7-7-7-7-|----------5--5-----------7-7-7-7-|
E|-12/2-|-5-5-5-5---------|-2-2-2-2---------5-5-5-5---------|

Conmoción... las figuras van desnudas y bien bronceadas...


G|-----------------------------------|----------------------------------|
D|-----------------------------------|----------------------------------|
A|------------5--5-----------7-7-7-7-|------------5--5----------7-7-7-7-|
E|-2-2-2-2-2---------5-5-5-5---------|-2-2-2-2-2--------5-5-5-5---------|

Excitación... sentimiento visceral acelerado...


G|----------------|----------------|----------------|-----------------|
D|----------------|----7------7----|----------------|----7------------|
A|----9------9----|-5-----5-5----5-|----9------9----|-5-----5-7--5----|
E|-7-----7-7----7-|----------------|-7-----7-7----7-|---------------5-|

Yo... yo no sé lo que va a suceder... con tanta mujer...


Coro


G|-----------------|----------------|----------------|---------------|
D|-----------------|----------------|----------------|---------------|
A|---5--7-7--5-5---|--5--7-7--5-5---|--5--7-7--5-5---|--9-7-7--5-5---|
E|-5-------------5-|--------------5-|--------------5-|-------------5-|

Perdido en un barco... perdido en sus brazos... con este barco en altamar perdido yo...


G|----------------|----------------|----------------|---------------|
D|----------------|----------------|----------------|---------------|
A|--5--7-7--5-5---|--5--7-7--5-5---|--5--7-7--5-5---|--9-7-7--5-5---|
E|--------------5-|--------------5-|--------------5-|-------------5-|

Perdido en un barco... perdido en sus muslos... con este barco en altamar perdido yo...


G|----------------|----------------|----------------|------------|
D|----------------|----------------|----------------|------------|
A|--5--7-7--5-5---|--5--7-7--5-5---|--5--7-7--5-5---|--5-7-7-----|
E|--------------5-|--------------5-|--------------5-|------------|


G|----------------|----------------|----------------|----------------|
D|---7------7-7---|---7------7-7---|---6------6-6---|---6------6-6---|
A|-5----5-5-----5-|-5----5-5-----5-|-4----4-4-----4-|-4----4-4-----4-|
E|----------------|----------------|----------------|----------------|

Esto es demasiado...                  me siento devorado...


G|----------------|----------------|----------------|---------------|
D|---7------7-7---|---7------7-7---|---6------6-6---|---------------|
A|-5----5-5-----5-|-5----5-5-----5-|-4----4-4-----4-|-2?/7?---7-7-7-|
E|----------------|----------------|----------------|---------------|

Estoy muy desahuciado... mas sé la solución... que armé yo aquí...


G|-------|--------------|--------------|--------------|--------------|
D|-------|--------------|--------------|--------------|--------------|
A|-5-5---|-5-7-7--5-5---|-5-7-7--5-5---|-5-7-7--5-5---|-9-7-7--5-5---|
E|-----5-|------------5-|------------5-|------------5-|------------5-|

Todo es un... perdido en sus brazos... con este barco en altamar perdido yo...


G|--------------|--------------|--------------|--------------|
D|--------------|--------------|--------------|--------------|
A|-5-7-7--5-5---|-5-7-7--5-5---|-5-7-7--5-5---|-9-7-7--5-5---|
E|------------5-|------------5-|------------5-|------------5-|

Perdido en un barco... perdido en sus muslos... con este barco en altamar perdido yo...


G|--------------|--------------|--------------|--------------|
D|--------------|--------------|--------------|--------------|
A|-5-7-7--5-5---|-5-7-7--5-5---|-5-7-7--5-5---|-5-7-7--5-5---|
E|------------5-|------------5-|------------5-|------------5-|

Ole ola olo... perdido en un barco... ole ola olo perdido en un barco


G|--------------|--------------|--------------|---------------|
D|--------------|--------------|--------------|---------------|
A|-5-7-7--5-5---|-5-7-7--5-5---|-5-7-7--5-5---|-5-7-7--5-5----|
E|------------5-|------------5-|------------5-|-------------5-|
Ole ola olo... perdido en un barco... ole ola olo perdido en un barco


Arriba Miami!!!


Durante el solo de guitarra:

G|---------|
D|---------|
A|---------|
E|-5---5---|


Y luego sigue hasta el final:

G|----------------|--------------|--------------|--------------|
D|----------------|--------------|--------------|--------------|
A|---5-7-7--5-5---|-5-7-7--5-5---|-5-7-7--5-5---|-5-7-7--5-5---|
E|-5------------5-|------------5-|------------5-|------------5-|


G|-----|
D|-----| Esta parte suena justo al final
A|-----| 
E|--5--|


FIN

Cualquier duda o sugerencia escríbanme...

Saludos a los miembros de la banda: Gustavo y Oscar(guitarras), 
Fernando y Johnny (teclado y batería), Lucho y Miguel(voces)
Suggest correction
Give kudos to tab author, rate the tab!
1 2 3 4 5
comments
print report bad tab
guest
Wanna post a correction for this tab? Suggest correction