Oops, an error
Loading. Please wait.

Pobre Juan Tab

version 2
version 2

Whole song

Interactive

by Maná
31 views 1 this week
no commentswrite comment
1 2 3 4 5
3 more votes to show rating
add to favorites
launch autoscroll
font size
0
reset
how to read this tab
guitar tuner
×
Best way to learn
"Pobre Juan"
Autoscroll
slow
fast
+/-
esc
set tempo
stop
AHI VA CHAVALES/AS. S LOA PRIMERA TABLATURA KE AGO, 
ASÍ QUE PAR CUALQUIER CORRECIÓN,SCRIBIRME.

E----2----0-----------------0--------2-0--
B---4-4--4-4--040---2-----0---0----2----0-
G------------------3-3---1-1-1-1--3-3-3---   
D-----------------------------------------  
A----------------------------------------- 
E-----------------------------------------
REPETIR 3 VECES


E--2----0-------------020---2------2-----242--020---2---020---2------
B-4-4--4-4--040---2--------4-4--242-242------------4-4-------4-4--242
G----------------3-3-------------------------------------------------
D--------------------------------------------------------------------
A--------------------------------------------------------------------
E--------------------------------------------------------------------


E----2----0-----------------0--------2-0--
B---4-4--4-4--040---2-----0---0----2----0-
G------------------3-3---1-1-1-1--3-3-3---   
D-----------------------------------------
A-----------------------------------------
E-----------------------------------------
REPETIR 2 VECES


E--2----0-------------020---2------2-----242--020---2---020---2------
B-4-4--4-4--040---2--------4-4--242-242------------4-4-------4-4--242
G----------------3-3-------------------------------------------------
D--------------------------------------------------------------------
A--------------------------------------------------------------------
E--------------------------------------------------------------------


E-4----4----4----4----6----6----6----6----6----6----6----6----7----7----9----7--
B--5----5----5----5----7----7----7----7----7----7----7----7----9----9----9----9-
G---4----4----4----4----6----6----6----6----8----8----8----8----8----8----8----8
D-------------------------------------------------------------------------------
A-------------------------------------------------------------------------------
E-------------------------------------------------------------------------------
REPETIR 3 VECES


E----2----0-----------------0--------2-0--
B---4-4--4-4--040---2-----0---0----2----0-
G------------------3-3---1-1-1-1--3-3-3---   
D-----------------------------------------
A-----------------------------------------
E-----------------------------------------
REPETIR 2 VECES


E--2----0-------------020---2------2-----242--020---2---020---2------
B-4-4--4-4--040---2--------4-4--242-242------------4-4-------4-4--242
G----------------3-3-------------------------------------------------
D--------------------------------------------------------------------
A--------------------------------------------------------------------
E--------------------------------------------------------------------


E-4----4----4----4----6----6----6----6----6----6----6----6----7----7----9----7--
B--5----5----5----5----7----7----7----7----7----7----7----7----9----9----9----9-
G---4----4----4----4----6----6----6----6----8----8----8----8----8----8----8----8
D-------------------------------------------------------------------------------
A-------------------------------------------------------------------------------
E-------------------------------------------------------------------------------
REPETIR 3 VECES


E----2----0-----------------0--------2-0----2----0------------------------
B---4-4--4-4--040---2-----0---0----2----0--4-4--4-4--040---2-----0----2--0
G------------------3-3---1-1-1-1--3-3-3-------------------3-3---1-1--3-3--   
D-------------------------------------------------------------------------  
A------------------------------------------------------------------------- 
E-------------------------------------------------------------------------
Suggest correction
Give kudos to tab author, rate the tab!
1 2 3 4 5
comments
print report bad tab
guest
You may want to rate the tab now too:
select rating
Wanna post a correction for this tab? Suggest correction