Oops, an error
Loading. Please wait.

Pobre Juan Tab

version 3
version 3

Whole song

Interactive

13 views 1 this week
no commentswrite comment
1 2 3 4 5
3 more votes to show rating
add to favorites
launch autoscroll
font size
0
reset
how to read this tab
guitar tuner
Autoscroll
slow
fast
+/-
esc
set tempo
stop
Help us to improve Ultimate-Guitar.com Take our survey!
×
Este es el riff para el intro y los versos

e------2--------------0------------------------------
b----4---4---------4----4---------4---------2--------
g--4------------4---------------4---4-----3---3------
d-----------------------------6---------4------------
a---------------------------6------------------------
E----------------------------------------------------

e----------0------------------2-----0----------------
b------0--------0---------2-----------0--------------
g----1---1----1---1-----3---3----3-------------------
d--2------------------4------------------------------
a----------------------------------------------------
E----------------------------------------------------

Juan se lanzo marchandose al norte
iba en busca de una vida digna
cruzando Mexico por valles y por montes
iba Juan lleno de fe
La historia es que Juan se iba casar 
con maria........

e----------------------------------------------------
b-----9------------7---------------------------------
g---9---9-------8-----8----------12-------------------
d------------9----------------12----12--------------
a-7------------------------10-------------------------
E---------------------------------------------------

embarazada
pero el no tenia ni un centavo

e----------------------------------------------------
b-----9------------7---------------------------------
g---9---9-------8-----8-------------------------------
d------------9--------------------------------------
a-7--------------------------------------------------
E---------------------------------------------------

ni un clavo que darle el.


e------2--------------0------------------------------
b----4---4---------4----4---------4---------2--------
g--4------------4---------------4---4-----3---3------
d-----------------------------6---------4------------
a---------------------------6------------------------
E----------------------------------------------------

e----------0------------------2-----0----------------
b------0--------0---------2-----------0--------------
g----1---1----1---1-----3---3----3-------------------
d--2------------------4------------------------------
a----------------------------------------------------
E----------------------------------------------------


pero este Juan iba muy decidido
y a la frontera el llego con todo el filo.
se conecto con el mero mayor de los coyotes
y la historia le conto.
mire usted que yo quiero cruzarme ya

e----------------------------------------------------
b-----9------------7---------------------------------
g---9---9-------8-----8----------12-------------------
d------------9----------------12----12--------------
a-7------------------------10-------------------------
E---------------------------------------------------

a San Diego o Chicago
digame usted lo que hago

e----------------------------------------------------
b-----9------------7---------------------------------
g---9---9-------8-----8-------------------------------
d------------9--------------------------------------
a-7--------------------------------------------------
E---------------------------------------------------

que precio    le pago...

SOLO:
E-4----4----4----4----6----6----6----6----6----6----6----6----7----7----9----7--
B--5----5----5----5----7----7----7----7----7----7----7----7----9----9----9----9-
G---4----4----4----4----6----6----6----6----8----8----8----8----8----8----8----8
D-------------------------------------------------------------------------------
A-------------------------------------------------------------------------------
E-------------------------------------------------------------------------------
REPETIR 3 VECES
Suggest correction
Give kudos to tab author, rate the tab!
1 2 3 4 5
comments
print report bad tab
guest
You may want to rate the tab now too:
select rating
Wanna post a correction for this tab? Suggest correction