Oops, an error
Loading. Please wait.

Pobre Juan Tab

version 4
version 4

Whole song

Interactive

by Maná
26 views 3 this week
no commentswrite comment
1 2 3 4 5
3 more votes to show rating
add to favorites
×
Save as Personal and add changes to this tab that will be seen only by you. Learn more ›
×
You can save this tab as Personal to edit and correct it or add notes. All changes will be seen only by you. Learn more »
save as personal
new!
launch autoscroll
font size
0
reset
how to read this tab
guitar tuner
Autoscroll
slow
fast
+/-
esc
set tempo
stop
Author
Unregistered
Canción: Pobre Juan
Artista: Maná

Tabulado por Marcos Prieto (marcrow_ps@

Dedicado a Nuria.

Este tab es una ampliación de unos tabs que había visto en la red y
la corrección de otros. Para una mejor comprensión del ritmo he colocado 
unos símbolos (+) en el tabulado que indican el ritmo (4x4). Aconsejo para 
el que no lo haga que marque cada '+' con el pie.

Anotación:

 ~: deja sonar la nota.
 b: bend --> dobla la cuerda hasta que suene la nota después de la b.
 /: slide: desliza desde un traste hacia otro. 1/3 --> desliza desde 1 hasta 3.
 ^: indica un traste mayor que 9. 12 es 12, no 1 y 2.
                                  ^ 
Acordes:

   B: x 2 4 4 3 2
B/Bb: x 1 x 4 4 x -> es la forma más fácil: índice a Bb, anular a B y meñique a D#
                     Si no funciona, prueba: 6 9 9 x x x
 G#m: 4 6 6 4 4 4
  F#: 2 4 4 3 4 4
   E: 0 2 2 1 0 0
 F#7: 2 4 2 3 2 2 -> suena mejor F# en su lugar, pero armónicamente F#7 es más correcto.
  E-: x x 1 1 0 0
  C#: x 4 6 6 6 4
 D#m: x 6 8 8 7 6

**********************************************************************

Introducción - Verso 1:

 |Guitarra 1
 |B       B/Bb     G#m     F#       E                F#7
 |+   +   +   +    +   +   +   +    +   +   +   +    +   +   +   +   |
e|----2------0----|----------------|--------0-------|--------2--0----|
B|--4---4---4---4-|--0-4-0----2----|---0-------0----|---2----------0-|
G|----------------|----------3---3-|--1---1---1---1-|--3---3---3-----|   
D|----------------|----------------|----------------|----------------| 
A|----------------|----------------|----------------|----------------| 
E|----------------|----------------|----------------|----------------|x3
 
Verso 2:

  B       B/Bb     G#m     F#       E       Em       C#      B
 |+   +   +   +    +   +   +   +    +   +   +   +    +   +   +   +   |
e|----2------0----|----------------|--0-2-0---------|----------------|
B|--4---4---4---4-|--0-4-0----2----|----------40--2-|--2-4-2---02--0-|
G|----------------|----------3---3-|----------------|----------------|
D|----------------|----------------|----------------|----------------|
A|----------------|----------------|----------------|----------------|
E|----------------|----------------|----------------|----------------|

  F#      E        B       E        B       F#       B       F#
 |+   +   +   +    +   +   +   +    +   +   +   +    +   +   +   +   |
e|--2-4-2---02--0-|----2-----02--0-|----2-----24--2-|----2-----------|
B|----------------|--4---4---------|--4---4---------|--4---4---------|
G|----------------|----------------|----------------|----------------|
D|----------------|----------------|----------------|----------------|
A|----------------|----------------|----------------|----------------|
E|----------------|----------------|----------------|----------------|
 |
 |Guitarra 2
A|----------------|----------------|----------------|------------1---|
E|----------------|----------------|----------------|--------2-4---2-|
 |+   +   +   +    +   +   +   +    +   +   +   +    +   +   +   +   |

Verso 1:

 |B       B/Bb     G#m     F#       E                F#7
 |+   +   +   +    +   +   +   +    +   +   +   +    +   +   +   +   |
e|----2------0----|----------------|--------0-------|--------2--0----|
B|--4---4---4---4-|--0-4-0----2----|---0-------0----|---2----------0-|
G|----------------|----------3---3-|--1---1---1---1-|--3---3---3-----|   
D|----------------|----------------|----------------|----------------| 
A|----------------|----------------|----------------|----------------| 
E|----------------|----------------|----------------|----------------| x2
 |
 |Guitarra 2                                         primera vez:
A|2~--------------|----------------|----------------|--------------2-| 
E|----------------|----------------|----------------|------------24-4|
                                                     segunda vez:
A|2~--------------|----------------|----------------|--------------24| 
E|----------------|----------------|----------------|------------24--|
 |+   +   +   +    +   +   +   +    +   +   +   +    +   +   +   +   |

Verso 2:

  B       B/Bb     G#m     F#       E       Em       C#      B
 |+   +   +   +    +   +   +   +    +   +   +   +    +   +   +   +   |
e|----2------0----|----------------|--0-2-0---------|----------------|
B|--4---4---4---4-|--0-4-0----2----|----------40--2-|--2-4-2---02--0-|
G|----------------|----------3---3-|----------------|----------------|
D|----------------|----------------|----------------|----------------|
A|----------------|----------------|----------------|----------------|
E|----------------|----------------|----------------|----------------|
 |
 |Guitarra 2
A|2~--------------|
E|----------------|
 |
 |Guitarra 3
G|----------------|----------------|--------------6-|--------4-------|
D|----------------|----------------|----------------|6----1/4--4--1/4|
A|----------------|----------------|----------------|----------------|
E|----------------|----------------|----------------|----------------|
 |+   +   +   +    +   +   +   +    +   +   +   +    +   +   +   +   |

  F#      E        B       E        B       F#       B       F#
 |+   +   +   +    +   +   +   +    +   +   +   +    +   +   +   +   |
e|--2-4-2---02--0-|----2-----02--0-|----2-----24--2-|----2-----------|
B|----------------|--4---4---------|--4---4---------|--4---4---------|
G|----------------|----------------|----------------|----------------|
D|----------------|----------------|----------------|----------------|
A|----------------|----------------|----------------|----------------|
E|----------------|----------------|----------------|----------------|
 |
 |Guitarra 2
G|----------------|----------------|----------------|4-4-------------|
D|----------------|----------------|----------------|4-4-----4-4-----|
A|----------------|----------------|----------------|2-2-----4-4-----|
E|----------------|----------------|----------------|--------2-2-----|
 |
 |Guitarra 3
G|3~--------------|
D|---4------------|
A|----------------|
E|----------------|
 |+   +   +   +    +   +   +   +    +   +   +   +    +   +   +   +   |

Estribillo:
  
  E                F#               D#m              G#m
 |+   +   +   +    +   +   +   +    +   +   +   +    +       +       +       +      |
e|4---4---4---4---|6---6---6---6---|6---6---6---6---|7-------7-------9-------7------|
B|-5---5---5---5--|-7---7---7---7--|-7---7---7---7--|--9-------9-------9-------9----|
G|--4---4---4---4-|--6---6---6---6-|--8---8---8---8-|----8-------8-------8-------8--|
D|----------------|----------------|----------------|-------------------------------|
A|----------------|----------------|----------------|-------------------------------|
E|----------------|----------------|----------------|-------------------------------|
 |
 |Guitarra 3
e|----------------|----------------|----------------|-------------------------------|
B|----------------|----------------|----------------|----------------------7/9999797|
G|----------------|----------------|----------------|----------------------6/9999696|
 |+   +   +   +    +   +   +   +    +   +   +   +    +       +       +       +      |

  E                F#               D#m              G#m
 |+   +   +   +    +   +   +   +    +   +   +   +    +       +       +       +      |
e|4---4---4---4---|6---6---6---6---|6---6---6---6---|7-------7-------9-------7------|
B|-5---5---5---5--|-7---7---7---7--|-7---7---7---7--|--9-------9-------9-------9----|
G|--4---4---4---4-|--6---6---6---6-|--8---8---8---8-|----8-------8-------8-------8--|
D|----------------|----------------|----------------|-------------------------------|
A|----------------|----------------|----------------|-------------------------------|
E|----------------|----------------|----------------|-------------------------------|
 |
 |Guitarra 3
e|----------------|----------------|----------------|-----------------------7-------|
B|5~--------------|----------------|----------------|-------------------7/99-9b117-7|
G|4~--------------|----------------|----------------|--------------------------^--9-|
 |
 |Guitarra 2
D|----------------|----------------|----------------|-------------------------------|
A|----------------|----------------|----------------|-------------------------------|
E|----------------|----------------|----------------|4-------6-------7-------4------|
 |+   +   +   +    +   +   +   +    +   +   +   +    +       +       +       +      |

  E                F#               D#m              G#m
 |+   +   +   +    +   +   +   +    +   +   +   +    +   +   +   +   |
e|4---4---4---4---|6---6---6---6---|6---6---6---6---|7---7---9---7---|
B|-5---5---5---5--|-7---7---7---7--|-7---7---7---7--|-9---9---9---9--|
G|--4---4---4---4-|--6---6---6---6-|--8---8---8---8-|--8---8---8---8-|
D|----------------|----------------|----------------|----------------|
A|----------------|----------------|----------------|----------------|
E|----------------|----------------|----------------|----------------|
 |
 |Guitarra 3
e|----------------|----------------|----------------|----------------|
B|9~--------------|11~-------------|11~-------------|12~-------------|
G|----------------|^---------------|^------------11-|^---------------|
 |                                               ^
 |Guitarra 2
D|----------------|----------------|----------------|--------------6-|
A|----------------|----------------|----------------|--------------6-|
E|----------------|----------------|----------------|--------------4-|
 |+   +   +   +    +   +   +   +    +   +   +   +    +   +   +   +   |

 |Guitarra 2     
 |E       F#        
D|2~------4~------|
A|2~------4~------|
E|0~------2~------|
 |+   +   +   +   | 

Sólo de armónica - Verso 1:

  B       B/Bb     G#m     F#       E                F#7
 |+   +   +   +    +   +   +   +    +   +   +   +    +   +   +   +   |
e|----2------0----|----------------|--------0-------|--------2--0----|
B|--4---4---4---4-|--0-4-0----2----|---0-------0----|---2----------0-|
G|----------------|----------3---3-|--1---1---1---1-|--3---3---3-----|   
D|----------------|----------------|----------------|----------------| 
A|----------------|----------------|----------------|----------------| 
E|----------------|----------------|----------------|----------------| x3
 | 
 |
 |Guitarra 2                                         primera vez:
A|2~--------------|----------------|----------------|------------1---| 
E|----------------|----------------|----------------|--------2-4---2-|
                                                    |segunda vez:
                                                   A|--------------2-|
                                                   E|------------24-4|
 |+   +   +   +    +   +   +   +    +   +   +   +    +   +   +   +   |

                                                    |tercera vez (guitarra 3):
                                                    |   Lo siento, pero me ha sido
                                                    |   imposible sacar este riff.

Verso 2:

  B       B/Bb     G#m     F#       E       Em    C#      B
 |+   +   +   +    +   +   +   +    +   +   +   +    +   +   +   +   |
e|----2------0----|----------------|--0-2-0---------|----------------|
B|--4---4---4---4-|--0-4-0----2----|----------40--2-|--2-4-2---02--0-|
G|----------------|----------3---3-|----------------|----------------|
D|----------------|----------------|----------------|----------------|
A|----------------|----------------|----------------|----------------|
E|----------------|----------------|----------------|----------------|
 |
 |Guitarra 3
G|----------------|----------------|--------------6-|--------4-------|
D|----------------|----------------|----------------|6----1/4--4--1/4|
A|----------------|----------------|------------6---|----------------|
E|----------------|----------------|----------------|----------------|
 |+   +   +   +    +   +   +   +    +   +   +   +    +   +   +   +   |

  F#      E        B       E        B       F#       B       F#
 |+   +   +   +    +   +   +   +    +   +   +   +    +   +   +   +   |
e|--2-4-2---02--0-|----2-----02--0-|----2-----24--2-|----2-----------|
B|----------------|--4---4---------|--4---4---------|--4---4---------|
G|----------------|----------------|----------------|----------------|
D|----------------|----------------|----------------|----------------|
A|----------------|----------------|----------------|----------------|
E|----------------|----------------|----------------|----------------|
 |
 |Guitarra 2
G|----------------|----------------|----------------|4--4------------|
D|----------------|----------------|----------------|4--4----4--4----|
A|----------------|----------------|----------------|2--2----4--4----|
E|----------------|----------------|----------------|--------2--2----|
 |
 |Guitarra 3
G|3---------------|
D|--4-------------|
A|----------------|
E|----------------|
 |+   +   +   +    +   +   +   +    +   +   +   +    +   +   +   +   |

Estribillo:

  E                F#               D#m              G#m
 |+   +   +   +    +   +   +   +    +   +   +   +    +   +   +   +   |
e|4---4---4---4---|6---6---6---6---|6---6---6---6---|7---7---9---7---|
B|-5---5---5---5--|-7---7---7---7--|-7---7---7---7--|-9---9---9---9--|
G|--4---4---4---4-|--6---6---6---6-|--8---8---8---8-|--8---8---8---8-|
D|----------------|----------------|----------------|----------------|
A|----------------|----------------|----------------|----------------|
E|----------------|----------------|----------------|----------------|
 |
 |Guitarra 3
e|----------------|----------------|----------------|----------------|
B|9~--------------|11~-------------|11~-------------|12~-------------|
G|----------------|^---------------|^------------11-|^---------------|
 |+   +   +   +    +   +   +   +    +   +   +   +^   +   +   +   +   |

  E                F#               D#m              G#m
 |+   +   +   +    +   +   +   +    +   +   +   +    +       +       +       +      |
e|4---4---4---4---|6---6---6---6---|6---6---6---6---|7-------7-------9-------7------|
B|-5---5---5---5--|-7---7---7---7--|-7---7---7---7--|--9-------9-------9-------9----|
G|--4---4---4---4-|--6---6---6---6-|--8---8---8---8-|----8-------8-------8-------8--|
D|----------------|----------------|----------------|-------------------------------|
A|----------------|----------------|----------------|-------------------------------|
E|----------------|----------------|----------------|-------------------------------|
 |
 |Guitarra 3
e|----------------|----------------|----------------|-----------------------7-------|
B|----------------|----------------|----------------|-------------------7/99-9b117-7|
G|----------------|----------------|----------------|-----------------------------9-|
 |
 |Guitarra 2
D|----------------|----------------|----------------|-------------------------------|
A|----------------|----------------|----------------|-------------------------------|
E|----------------|----------------|----------------|4-------6-------7-------4------|
 |+   +   +   +    +   +   +   +    +   +   +   +    +       +       +       +      |

  E                F#               D#m              G#m
 |+   +   +   +    +   +   +   +    +   +   +   +    +       +       +       +      |
e|4---4---4---4---|6---6---6---6---|6---6---6---6---|7-------7-------9-------7------|
B|-5---5---5---5--|-7---7---7---7--|-7---7---7---7--|--9-------9-------9-------9----|
G|--4---4---4---4-|--6---6---6---6-|--8---8---8---8-|----8-------8-------8-------8--|
D|----------------|----------------|----------------|-------------------------------|
A|----------------|----------------|----------------|-------------------------------|
E|----------------|----------------|----------------|-------------------------------|
 |
 |Guitarra 3
e|----------------|----------------|----------------|-----------------------7-------|
B|----------------|----------------|----------------|-------------------7/99-9b117-7|
G|----------------|----------------|----------------|--------------------------^--9-|
 |
 |Guitarra 2
e|----------------|----------------|----------------|-------------------------------|
B|9~--------------|11~-------------|11~-------------|12~----------------------------|
G|----------------|^---------------|^------------11-|^------------------------------|
 |+   +   +   +    +   +   +   +    +   +   +   +^   +       +       +       +      |

  E                F#               D#m              G#m
 |+   +   +   +    +   +   +   +    +   +   +   +    +   +   +   +   |
e|4---4---4---4---|6---6---6---6---|6---6---6---6---|7---7---9---7---|
B|-5---5---5---5--|-7---7---7---7--|-7---7---7---7--|-9---9---9---9--|
G|--4---4---4---4-|--6---6---6---6-|--8---8---8---8-|--8---8---8---8-|
D|----------------|----------------|----------------|----------------|
A|----------------|----------------|----------------|----------------|
E|----------------|----------------|----------------|----------------|
 |
 |Guitarra 3
e|----------------|----------------|----------------|----------------|
B|9~--------------|11~-------------|11~-------------|12~-------------|
G|----------------|^---------------|^------------11-|^---------------|
 |+   +   +   +    +   +   +   +    +   +   +   +^   +   +   +   +   |

 |Guitarra 2     
 |E       F#        
D|2~------4~------|
A|2~------4~------|
E|0~------2~------|
 |+   +   +   +   | 

Sólo de armónica - final

  B       B/Bb     G#m     F#       E                F#
 |+   +   +   +    +   +   +   +    +   +   +   +    +   +   +   +   |
e|----2------0----|----------------|--------0-------|--------2--0----|
B|--4---4---4---4-|--0-4-0----2----|---0-------0----|---2----------0-|
G|----------------|----------3---3-|--1---1---1---1-|--3---3---3-----|   
D|----------------|----------------|----------------|----------------| 
A|----------------|----------------|----------------|----------------| 
E|----------------|----------------|----------------|----------------| x2

  B       B/Bb     G#m     F#       E          F#       B
 |+   +   +   +    +   +   +   +    +   +   +   +    +   +   +   +   |
e|----2------0----|----------------|-----------2----|----------------|
B|--4---4---4---4-|--0-4-0----2----|---0-------2--2-|0---------------|
G|----------------|----------3---3-|--1---1---3-----|----------------|
D|----------------|----------------|----------------|----------------|
A|----------------|----------------|----------------|----------------|
E|----------------|----------------|----------------|----------------| 

     __   _      __      __      _____   _____   _____
    /  | / |    /  |    /  `\   / ___/  / __ /  (  __/
   /   |/  |   / /||   / /) /  //      / / //   \ \
  / /|   /||  / /^||  / /||   //___   / / //  ___) )
 / / |  / || / /  || / / ||  /    /  /  ^^/  /    / 
 ^^^^^^^^^^^^^^^^^^^^^^^^^^^^^^^^^^^^^^^^^^^^^^^^^
Suggest correction
Give kudos to tab author, rate the tab!
1 2 3 4 5
comments
print report bad tab
guest
Wanna post a correction for this tab? Suggest correction