Oops, an error
Loading. Please wait.

Por Qué Te Vas? Tab

version 3
version 3

Whole song

by Maná
20 views 1 this week
no commentswrite comment
1 2 3 4 5
3 more votes to show rating
add to favorites
launch autoscroll
font size
0
reset
how to read this tab
guitar tuner
×
Best way to learn
"Por Qué Te Vas?"
Autoscroll
slow
fast
+/-
esc
set tempo
stop
Bueno, aqui esta el tan deseado solo de la cancion, no estoy 100 %
seguro porque lo saque en una guitarra acustica, pero yo digo que con
una electrica, si le metes distorcion si suena bien, el que no
me convence mucho es el intro, pero bueno aqui esta de todos modos:


Intro:
1. ----------------------------------------------
2. ----------------------------------------------
3. ----------------------------------------------
4. --0--7-0--7---------7--------9----------------
5. --------------4-0-4-----2----------0----5-0---
6. -----5----5---------5-----3--7-3----7---------.... 
se repite esto durante los versos.

D
Cuanto tiempo sin vernos a la cara, 
G
si hoy tan solo te pudiera acariciar.
Em                  A
Ay, te extraño tanto, tanto corazon,
D
que no sabes.

D
Todo pasa tan deprisa en estas calles,
G
en un cerrar de ojos todo termino.
Em                   A
Yo no se porque te fuiste
           D
sin decir adios.

CORO:

D                
Porque te vas?
G
porque te vas?
Em          A         D
cuando te quiero de mas.

D
Me hace falta tu calor aqui en mi cama,
G
sin tu sonrisa el cielo, el sol se me apago.
Em                   A             D
Yo no sé si es mejor morirme de amor, no se.


D                
Porque te vas?
G
porque te vas?
Em          A         D
cuando te quiero de mas.


G        A            D
Dile al cielo que no puedo,
G        A      Bm        A
dile que no se vivir sin ti,
G      A         D        G     
eso pasa por quererte de mas,
                  A      
dile que es mejor morirme de amor.

SOLO:

1. ----------------------------------------------
2. -------5-7-8b-7p3---3-------------7-8-10b-----
3. --5-7-------------------------7-9---------7---
4. ------------------------5/7-------------------
5. ----------------------------------------------
6. ----------------------------------------------

1. ---------------------------0-0-2-0-0-0---
2. -0-3-5/7-5p3-------2/3~----0-2-0-2-0-0---
3. ---------------5-7-5-------1-2-2-0-0-0---
4. ---------------------------0-2-1-2-0-2---
5. ---------------------------2-0-2-0-0-2---
6. ---------------------------0-0-0-0-0-0---

1. ----------------------------------------------
2. ----------------------------------------------
3. ----------------------------------------------
4. --0--7-0--7---------7--------9----------------
5. --------------4-0-4-----2----------0----5-0---
6. -----5----5---------5-----3--7-3----7---------

D                
Porque te vas?
G
porque te vas?
Em          A         D
cuando te quiero de mas.

D                
Porque te vas?
G
porque te vas?
Em          A         D
cuando te quiero de mas.


Bueno, pues ahi estuvo la rola. Si tienes dudas o comentarios, pues
seran bienvenidas. Suerte!!
Suggest correction
Give kudos to tab author, rate the tab!
1 2 3 4 5
comments
print report bad tab
guest
You may want to rate the tab now too:
select rating
Wanna post a correction for this tab? Suggest correction