Oops, an error
Loading. Please wait.

Rayando El Sol Bass Tab

version 3
version 3

Whole song

Interactive

95 views 1 this week
no commentswrite comment
1 2 3 4 5
3 more votes to show rating
add to favorites
launch autoscroll
font size
0
reset
guitar tuner
Autoscroll
slow
fast
+/-
esc
set tempo
stop
Help us to improve Ultimate-Guitar.com Take our survey!
×
Intro
G|------|----------------------------------------|
D|------|----------------------------------------|
A|-5/1--|----------------------------------------|
E|------|-33333333-1010101010-77777777-88888888--|

G|----------------------------------------|
D|----------------------------------------|
A|----------------------------------------|
E|-33333333-77777777-88888888-1010101010--|

Rayando el sol rayando por ti...
G|-----------------|
D|----------0------|
A|----23-------23--| x2
E|-3---------------|

G|-----------------------------------------------------------------------|
D|-----------------------------------------------------------------------|
A|-----------------------------------------------------------------------|
E|77777777-88888888-1010101010101010-8877777777-88888888-1010101010101010|

coro:
RAYANDO EL SOL! OH EH OH....
G|------|
D|------|
A|-5/1--|
E|------|

G|----------------------------------------|   |
D|----------------------------------------|   |
A|----------------------------------------|   |
E|-33333333-1010101010-77777777-88888888--|   |
                                              | x2
G|----------------------------------------|   |
D|----------------------------------------|   |
A|----------------------------------------|   |
E|-33333333-77777777-88888888-1010101010--|   |

A tu casa yo fui..
G|-----------------|
D|----------0------|
A|----23-------23--|
E|-3---------------|

G|------|--------------------------------------|
D|------|--------------------------------------|
A|------|--------------------------------------|
E|-5/1--|-33333333-88888888-10101010-88888888--|

G|------------------------------------------------------------------------|
D|------------------------------------------------------------------------|
A|------------------------------------------------------------------------|
E|-77777777-88888888-1010101010101010-77777777-88888888-1010101010101010--|

SE REPITE [Coro]

Solo
G|-----------------------------------------------------------------------|
D|-----------------------------------------------------------------------|
A|-----------------------------------------------------------------------|
E|-7777777777777777-1010101010101010-77777777-88888888-1010101010101010--|

G|----------------------------------------------------|
D|----------------------------------------------------|
A|-7---2---3---5---7---2------------------------------|
E|-------------------------88888888-1010101010101010--|

[Coro] hasta acabar la cancion
Suggest correction
Give kudos to tab author, rate the tab!
1 2 3 4 5
comments
print report bad tab
guest
You may want to rate the tab now too:
select rating
Wanna post a correction for this tab? Suggest correction