Oops, an error
Loading. Please wait.

Rayando El Sol (Unplugged) Tab

version 4
version 4

Whole song

52 views 1 this week
no commentswrite comment
1 2 3 4 5
3 more votes to show rating
add to favorites
launch autoscroll
font size
0
reset
how to read this tab
guitar tuner
Autoscroll
slow
fast
+/-
esc
set tempo
stop
Help us to improve Ultimate-Guitar.com Take our survey!
×
hola soy george (coco) aaqui les traigo mi segunda cancion
de mana en unplugged esta en la misma tonalidad
y acordes que la tocaron en umplugged espero que les guste
solo escuchen el cd' para tocarla bien..... saludos para los ladrones
de jose olaya......    (THE BRADS)


ESTE ES LA INTRODUCCION SOLO ESCRIBI ESTO YA QUE LO DEMAS YA LO
ESCRIBIERON  EN LAS TABLADURAS ANERIORES Y SUENA BIEN ...


INTRO:
   G       D           Em      C
e ---3-------2-----------3-------3----------
B -3---0-3-3---------3/5-----5-5---1-1------
G -------------2-2-4-------4-----------4-2--
D ------------------------------------------
A ------------------------------------------
E ------------------------------------------

   G       Bm          C           D         Em
e ---3-------2-----------------------2---------
B -3---0-3-3---------3---5-------3-5-----------
G -------------2-4-4---5---2-4-5-------2-2-4---
D -------------------------------------------2-
A ---------------------------------------------
E ---------------------------------------------

Este es el segundo solo ya que el primer solo
de la tablatura anterior suena correctamente a
la camcion por eso solo escribi  el segundo solo?


2º solo

   G           D              Em       C
e ----------------------------7---5----3-3-3-3-3--3-5-------
B -------1-5-1-3-3-3-3--1-3-1---3---3-----------------12-12-
G -0-2-4----------------------------------------------12-12-
D ----------------------------------------------------------
A ----------------------------------------------------------
E ----------------------------------------------------------

    G                     Bm           C                      D         G
e ----------------------------------------------------------------------3
B -12-12--12-12-12-13-12-12-10--10-10-10-12-10-10-12-8--8-8-8-7---------3
G -12-12--12-12-12-13-12-12-10--10-10-10-12-10-10-12-9--9-9-9-7-5-5-----4
D --------------------------------------------------------------5-5-9-7-5
A ------------------------------------------------------------------9-7-5
E ----------------------------------------------------------------------3

DUDA O COMENTARIO  ESCRIBANME A lewis712@
Suggest correction
Give kudos to tab author, rate the tab!
1 2 3 4 5
comments
print report bad tab
guest
You may want to rate the tab now too:
select rating
Wanna post a correction for this tab? Suggest correction