Oops, an error
Loading. Please wait.

Refrigerador Bass Tab

28 views 3 this week
no commentswrite comment
1 2 3 4 5
3 more votes to show rating
add to favorites
launch autoscroll
font size
0
reset
guitar tuner
Autoscroll
slow
fast
+/-
esc
set tempo
stop
Help us to improve Ultimate-Guitar.com Take our survey!
×
Intro
G|-------------------------|
D|-------------------------|
A|-------------------------|
E|-7-7-5-5--10-10-10-10-5--|

G|-----------------------------|
D|-----------------------------|
A|-----------------------------| x3
E|-7-7-5-5--10-10-10-10-5-5-7--|

G|----------|
D|----------|
A|----------|
E|-1-----3--|

Verso
G|--------------------------|
D|--------------------------|
A|--------------------------| x3
E|-7-9---9-7---7-12---12-7--|

Coro
G|----------------------------------------------|
D|----------------------------------------------|
A|----------------------------------------------|
E|-77777777-1212121212121212-77777777----12--5--|

G|------------------------------------------------------|
D|------------------------------------------------------|
A|------------------------------------------------------|
E|-77777777-1212121212121212-77777777----9-7-5---5-7-9--|

[Verso] x10
[Coro]
[Verso] x6

G|-------------------------------|----------------------------------|
D|-------------------------------|----------------------------------|
A|-------------------------------|----------------------------------|
E|-9--7--5--7------9--7--5----7--|-9--7--5--7------9--7--55----745--|

[Intro] x2 (Sin la tercera tabla)
[Coro]

Final
G|-------|------------------------------------------------|
D|-------|------------------------------------------------|
A|-------|------------------------------------------------|
E|-12/7--|-7-9---9-7---7-5---5-7---7-9---9-7---7-5---5-5--|
Suggest correction
Give kudos to tab author, rate the tab!
1 2 3 4 5
comments
print report bad tab
guest
You may want to rate the tab now too:
select rating
Wanna post a correction for this tab? Suggest correction