Oops, an error
Loading. Please wait.

Relax Bass Tab

82 views 1 this week
no commentswrite comment
1 2 3 4 5
3 more votes to show rating
add to favorites
launch autoscroll
font size
0
reset
guitar tuner
×
Best way to learn
"Relax"
Autoscroll
slow
fast
+/-
esc
set tempo
stop
ahi les va esta cancion chida
es bueeena
siento que el mundo
E|--5-3-0---|-------|-------------|
A|--------5-|-5-7---|-----7-5-/3--|x4
D|----------|-----5-|-7-5---------|
G|----------|-------|-------------|

E|--5-3-0---|--------5-|------5--|
A|--------5-|-5-77-5---|-77-5----|
D|----------|----------|---------|
G|----------|----------|---------|

E|--5-3-0---|-------|-------------|
A|--------5-|-5-7---|-----7-5-/3--|
D|----------|-----5-|-7-5---------|
G|----------|-------|-------------|

mi corazon
E|--5-3-0---|-------|-------------|
A|--------5-|-5-7---|-----7-5-/3--|x3
D|----------|-----5-|-7-5---------|
G|----------|-------|-------------|

quiero volar
E|--5-3-0---|------|------|
A|--------5-|-5-77-|------|
D|----------|------|-9-7--|
G|----------|------|------|

Precoro
Si me clavo
E|-------------------|-------------------|
A|--3-333-333-333-33-|-2-222-222-222-22--|
D|-------------------|-------------------|
G|-------------------|-------------------|

la libro
E|-------------------|------------|
A|--0-000-000-000-00-|-0-000-0-2--|
D|-------------------|------------|
G|-------------------|------------|

no me voy
E|-------------------|-------------------|
A|--3-333-333-333-33-|-2-222-222-222-22--|
D|-------------------|-------------------|
G|-------------------|-------------------|

un tiro
E|-------------------|----------------|
A|-------------------|----------------|
D|--2-222-222-222-22-|-2-222-222-222--|
G|-------------------|----------------|

Coro
Relax
E|--5-3-0---|-------|-------------|
A|--------5-|-5-7---|-----7-5-/3--|x4
D|----------|-----5-|-7-5---------|
G|----------|-------|-------------|

siento que todos
E|--5-3-0---|-------|-------------|
A|--------5-|-5-7---|-----7-5-/3--|x2
D|----------|-----5-|-7-5---------|
G|----------|-------|-------------|

buena talla
E|-------------|
A|--------7-5--|
D|--5/7-5------|
G|-------------|

salgo en las noches
E|--5-3-0---|-------|-------------|
A|--------5-|-5-7---|-----7-5-/3--|x3
D|----------|-----5-|-7-5---------|
G|----------|-------|-------------|

pero al final
E|--5-3-0---|------|------|
A|--------5-|-5-77-|------|
D|----------|------|-9-7--|
G|----------|------|------|

precoro
C B A C B E

Relax
E|--5-3-0---|-------|-------------|
A|--------5-|-5-7---|-----7-5-/3--|x4
D|----------|-----5-|-7-5---------|
G|----------|-------|-------------|

E|-------------------|-------------------|
A|--0-000-000-000-00-|-0-000-000-000-00--|
D|-------------------|-------------------|
G|-------------------|-------------------|

E|--3-333-333-333-33-|-3-333-333-333-33--|
A|-------------------|-------------------|
D|-------------------|-------------------|
G|-------------------|-------------------|

E|--1-111-111-111-11-|-1-111-111-111-11--|
A|-------------------|-------------------|
D|-------------------|-------------------|
G|-------------------|-------------------|

E|-------------------|----------------|
A|--3-333-333-333-33-|----------------|
D|-------------------|-2-222-222-222--|
G|-------------------|----------------|
estas 4 lineas se repiten A G F C E x2

E|--5-3-0---|-------|-------------|
A|--------5-|-5-7---|-----7-5-/3--|x4
D|----------|-----5-|-7-5---------|
G|----------|-------|-------------|

precoro
C B A C B E

03:19
E|--5-5---|-3-3-5--|
A|------5-|--------|x2
D|--------|--------|
G|--------|--------|

Relax
E|--5-3-0---|-------|-------------|
A|--------5-|-5-7---|-----7-5-/3--|x8
D|----------|-----5-|-7-5---------|
G|----------|-------|-------------|

E|--5-3-0---|----------|---------|
A|--------5-|-5-7--7-5-|-7--7-5--|x4
D|----------|----7-----|--7------|
G|----------|----------|---------|

atte. miauricio gatolar
Suggest correction
Give kudos to tab author, rate the tab!
1 2 3 4 5
comments
print report bad tab
guest
You may want to rate the tab now too:
select rating
Wanna post a correction for this tab? Suggest correction