Oops, an error
Loading. Please wait.

Róbame El Alma tab

version 2
version 2

Whole song

by Maná
45 views 1 this week
no commentswrite comment
1 2 3 4 5
3 more votes to show rating
add to favorites
×
Save as Personal and add changes to this tab that will be seen only by you. Learn more ›
×
You can save this tab as Personal to edit and correct it or add notes. All changes will be seen only by you. Learn more »
launch autoscroll
font size
0
reset
how to read this tab
guitar tuner
edit
Autoscroll
slow
fast
+/-
esc
set tempo
stop
BUENO, SI DEPRONTO NO SABIAN FERNANDO OLVERA SIERRA ES FHER
Y ALEJANDRO GONZALES TRUJILLO ES ALEX AQUI LES MANDO ESTE TAB
SI NO ENTIENDEN ALGO O TIENEN DUDAS PORFAVOR ESCRIBANME
alcahez2@
ESPERO LES SIRVA


Fig. 1           Fig.2
e---------------|---------------------------------------
b------10-------|----------9----------------10----------
g---9----9--9-9-|------9----9--9-9--------9---9--9-9----
d-7--7----7-----|----7--7----7------------7----7--------
a---------------|----------------------9----------------
E---------------|---------------------------------------

e---------------------|
b---10----------------|
g--9--9-9-----9-------|
d-0----------9--9-9---|
a----------7----------|
E---------------------|

NOTAS PARA EL VERSO

A5  5-7-7-x-x-x
C5# 9-11-11-x-x-x
D5  10-12-12-x-x-x
F5# 2-4-4-x-x-x
G5# 4-6-6-x-x-x

A5         C5#           A5
Robame el alma y bebela
          C5#           A5
Embriagate hasta caer
          C5#   D5   A5   C5#     F5#  G5#
Y amame hasta enloqueceeeeeéeeeéeer

A5        C5#             A5
Moja mis sueños con tu luz
         C5#             A5
Moja mis cabellos y mi piel
           C5# D5    A5    C5#    F5#      C5# D5
Hay algo en ti que me pone bieeeeeéeeeéeen

NOTAS PARA EL CORO ()= apretar solo algunas veces.
E5  x-7-9-9-x-x
F5# x-9-11-11-x-x
D5  10-12-12-x-x-x
D?  10-12-14-x-x-x o A? x-12-14-14-x-x
les puse D? o A? para escuchar cual les suena mejor.

E5        F5# E5
Robame el alma
D5      A5     C5# D5
Elevame con tu espiritu
E5        F5# E5
Robame el alma
D5        A5     C5# D5
Inyectame fuerza con tu luz
E5        F5# E5   D5   D?oA?   G5#/A5
Robame el almaaaaaáaaaa

VERSO

Robame el alma y siembrala
Entre tu pecho y corazon
Entre las nubes de tu pasion

Desnuda mi alma y curala
Llena mis ojos con tu luz
Llena mi amor con tu espiritu

CORO...

SOLO

e---------------------------------------------------------
b-10-10-10-10-10-10-9-9-9-9-9-9-7-7-7-7-10-10-10-10-10-10-
g---------------------------------------------------------
d---------------------------------------------------------
a---------------------------------------------------------
E---------------------------------------------------------

continua
e-----------------------------------
b--9-9-9-9-9-9-10-------------------
g-----------------------------------
d-----------------------------------
a-----------------------------------
E-----------------------------------

e-------------------------------------------------
b-12-12-12-12-12-12-14-14-14-14-14-14-14-14-14-14-
g-------------------------------------------------
d-------------------------------------------------
a-------------------------------------------------
E-------------------------------------------------

continua
e-----------------------------------
b--12-12-12-12-12-17-17-17-15-------
g-----------------------------------
d-----------------------------------
a-----------------------------------
E-----------------------------------


e----------------------------19-19-19-19-19-19-
b-15-15-15-15-15-15-14-14-14-14-14-14-17-17-17-
g----------------------------------------------
d----------------------------------------------
a----------------------------------------------
E----------------------------------------------

continua
e---17-17-17-17-17-17-17-17-16------
b--17-17-17-17----------------------
g-----------------------------------
d-----------------------------------
a-----------------------------------
E-----------------------------------


e-16-19-19-19-19-19-19-19-17-17-17-17-17-17-17-16/14-
b----------------------------------------------------
g----------------------------------------------------
d----------------------------------------------------
a----------------------------------------------------
E----------------------------------------------------

continua
e---14-14-14-14-15-15-15-15---------
b-----------------------------------
g-----------------------------------
d-----------------------------------
a-----------------------------------
E-----------------------------------


e-15-15-15-15-14-14-14-15-15-15-15-15-14-14-14-
b----------------------------------------------
g----------------------------------------------
d----------------------------------------------
a----------------------------------------------
E----------------------------------------------

e-14-14-14-14-15-15-15-14-14-14-14-15-15-15-15-|
b----------------------------------------------|
g----------------------------------------------|
d----------------------------------------------|
a----------------------------------------------|
E----------------------------------------------|

2X
e-----------------------------------------------
b----------------7-7-7--------------------------
g------------5-5-------------------5-5--7-7-7---
d---7-7--5-5--------------7-7--5-5--------------
a-5---------------------5-----------------------
E-----------------------------------------------

e-----------------------------------------------|
b----------------7-7-7--------------------------|
g------------5-5-------------------7-5-0----7---|
d---7-7--5-5--------------7-7--5-5-------5-7----|
a-5---------------------5-----------------------|
E-----------------------------------------------|

CORO

VARIACION (CON NOTAS DEL CORO)

A5        C5#       D5   A5       C5#    D5   E5  F5#
Desnuuuudameeee el alma  y cuuuuurame el almaaaaaáaa
E5          D5     A5  G#5/A5
Robame todo el alma

A5        C5#       D5   A5       C5#    D5   E5  F5#
Desnuuuudameeee el alma  y cuuuuurame el almaaaaaáaa
E5          D5     A5  C#5/D5
Robame todo el alma

A5 con Fig.1
ye  ye  ye  ye


LES GUSTO? BUENO OJALA QUE SI
TAMBIEN TENGO TABS EN INGLES

QUE VIVA EL TALENTO COLOMBIANO!!!!!

            
            
Suggest correction
Creating personal tab
Creating personal tab
You can edit any tab online and save it as your Personal.

You can edit, replace or remove any tab part or add personal notes – all changes will be seen only by you.

Personal tabs can be accessed anytime from any device, even offline.
Learn more »
Give kudos to tab author, rate the tab!
1 2 3 4 5
comments
print report bad tab
guest
Wanna post a correction for this tab? Suggest correction