Oops, an error
Loading. Please wait.

Sábanas Frías Bass Tab

version 1
version 1

Whole song

87 views 1 this week
no commentswrite comment
1 2 3 4 5
3 more votes to show rating
add to favorites
launch autoscroll
font size
0
reset
guitar tuner
×
Best way to learn
"Sábanas Frías"
Autoscroll
slow
fast
+/-
esc
set tempo
stop
ESTA ROLA SE LA QUIERO DEDICAR A LA CHAVA MAS
HERMOSA DE JALISCO EN ALBUQUERQUE;
LAURA CARINA RAMIREZ RUIZ

INTRO
Como me duele este frio...

G--9--9-9-9--12-12--11-9---------------7-8-
D------------------------7--7-7-7--9-9----- x4
A------------------------------------------
E------------------------------------------

1ER VERSO (Empieza en cuanto entra la bateria)
Estas sabanas mi amor...

G-----------0-0----------------------------
D--2--2-2-2-----4-2---------------0-1------ x10
A-------------------0--0-0-0--2-2----------
E------------------------------------------

PRE CORO

G------------------------------------------
D--2-2-2--2-2-2--0--------0-4----0-4-------
A------------------3-2--2------2-----------
E------------------------------------------

G------------------------------------------
D--2-2-2--2-2-2--0-------------------------
A------------------3-2---2---2-------------
E----------------------2---2---------------

CORO
Vente a vivir conmigo amor...

G----------------------------
D--2---0---------0----------- x4
A----2---3-2---2-------------
E------------2---------------

2DO VERSO
Y te cuidare por siempre...

G---------------
D--2------------ x3
A----0-2--------
E---------------

G---------------
D--2------------
A----0--2-2-2-2-
E---------------

Yo te quiero compartir...

G-----------0-0----------------------------
D--2--2-2-2-----4-2----------------0-1----- x4
A--------------------0--0-0-0--2-2---------
E------------------------------------------

(SUBE UNA NOTA)
A gozar...

G-------------
D-----2-4-----
A--4----------
E-------------

CORO
Vente a vivir conmigo amor...

G-----------------------
D--4---2---------2-4---- x3
A----4---5-4---4--------
E------------4----------

G-------------------------------
D--4---2-----------------4-3----
A----4---5-4---4-4-4-4-4--------
E------------4------------------

SE REPITEN LAS NOTAS DE ESTE MISMO CORO HASTA
EL FINAL, AUN DURANTE EL SOLO DE LA GUITARRA.
Suggest correction
Give kudos to tab author, rate the tab!
1 2 3 4 5
comments
print report bad tab
guest
You may want to rate the tab now too:
select rating
Wanna post a correction for this tab? Suggest correction