Oops, an error
Loading. Please wait.

Sábanas Frías Tab

version 2
version 2

Whole song

116 views 6 this week
no commentswrite comment
1 2 3 4 5
3 more votes to show rating
add to favorites
launch autoscroll
font size
0
reset
how to read this tab
guitar tuner
×
Best way to learn
"Sábanas Frías"
Autoscroll
slow
fast
+/-
esc
set tempo
stop
esta cancion no esta muy complicada y note k la tenian mal e
incompleta por eso la mande, saludos a mis compas musicos, weno
a yadira hasta k aprenda bien si no no xD.y en vez de ser
cholobanda raza dediquense a alguna actividad k los aleje del
mal by "dark vader".. jaja nos vemos , cualkier duda hay esta mi
correo byE!


intro y riff de la mayoria dla cancion :
            Em                        Am           B
e|------------------7-------------------------------------------|
B|---------8-----8--------10-----------5--------------7---------|
G|------9-----9--------9------9-----5-----5--------8-----8------|
D|---9---------------------------7-----------7--9---------------|
A|--------------------------------------------------------------|
E|--------------------------------------------------------------|

Esta parte no la habian puesto bien haci k esta esta 100% correcta
comparada con la k esta en la otra tablatura k tienen; la calidad
esta antes k la velocidad ;P ?
Esto toca la 2ª. guitarra al terminar esta frace :
Quisiera vivir amor atado a tus huesos?
e|-----------------------------------------------|
B|------------8-8-7-5----------------------------|
G|-9-9-9--9-9-7-7-6-4------------4-4-7-8---------| x2
D|-9-9-9--9-9-5-5-4-2--7-7-7-7-7-4-4-7-8---------|
A|-7-7-7--7-7----------7-7-7-7-7-2-2-5-6---------|
E|---------------------5-5-5-5-5-----------------|

Al terminar esta frace :
te comparto mi cuarto, mi cama y todo mi amor
e|---------------------|
B|---------------------|
G|-9-9-9--9-9-9-7-5-4--| x2
D|-9-9-9--9-9-9-7-5-4--|
A|-7-7-7--7-7-7-5-3-2--|
E|---------------------|

Aki empieza la cumbia :

  F#m                 E   D  C#    y este ultimo se toca mas o menos como
e|-9--x-x-9--9--9--x-7-7-5-5-4--|  el 1ro.
B|-10-x-x-10-10-10-x-9-9-7-7-6--|
G|-11-x-x-11-11-11-x-9-9-7-7-6--|  ?va durante todo el coro?
D|-11-x-x-11-11-11-x-9-9-7-7-6--|
A|-9--x-x-9--9--9--x-7-7-5-5-4--|
E|------------------------------|

Vente a vivir conmigo amor, que mi sábana está fría
Vente a vivir conmigo amor, porque mi cama está vacía
Vente a vivir conmigo amor, hiriendo a mis sentimientos
Sábanas frías sin su amor

E|--7--------5--------3-------3----5----------|
B|--8-----8--7-----7--5-----5---5--7-----7----|
G|--9---9----7---7----5---5--------7---7------|
D|--9-9------7-7------5-5----------7-7--------|
A|--7--------5--------3------------5----------|
E|--------------------------------------------|

Ya de aquí se repinten las mismas partes ?

Este solo esta genial lastima k dura poco 
Suggest correction
Give kudos to tab author, rate the tab!
1 2 3 4 5
comments
print report bad tab
guest
You may want to rate the tab now too:
select rating
Wanna post a correction for this tab? Suggest correction