Oops, an error
Loading. Please wait.

Sábanas Frías Bass

version 2
version 2

Whole song

by Maná
52 views 1 this week
no commentswrite comment
1 2 3 4 5
3 more votes to show rating
add to favorites
×
Save as Personal and add changes to this tab that will be seen only by you. Learn more ›
×
You can save this tab as Personal to edit and correct it or add notes. All changes will be seen only by you. Learn more »
save as personal
new!
launch autoscroll
font size
0
reset
guitar tuner
Autoscroll
slow
fast
+/-
esc
set tempo
stop
Durante toda esta letra se repite este bajo:

G|------------------|------------------|
D|---------5-5-4----|------------------|
A|-7-7-7-7-------7--|-------------6-7--|
E|------------------|-5-5-5-5-7-7------|

Cómo me duele este frío... aquí en mi cama...
cómo yo extraño tus besos ... en madrugada...
quisiera dormir amor... sobre tus pechos...
quisiera vivir amor... atado a tus huesos...


Estas sábanas mi amor... están muy frías...
ven a darme tu calor... y a arrancarme todo el dolor...
yo te quiero compartir... toda mi vida...
te comparto mi cuarto, mi cama y todo mi amor...


Antes del coro:

G|--------------------|--------------|
D|--------------------|-----4------4-|
A|-7-7-7--7-7-7-5-----|---6------6---|
E|----------------8-7-|-7------7-----|


G|-----------------|----------------|
D|-----------------|----------------|
A|-7--7-7-7-5-3-2--|-2---2---2---2--|
E|-----------------|---2-------2----|


Coro

G|--------|------|--------------|----------------|---------------|
D|-2------|------|------------1-|-2---2/5-4-2-4--|---------1----|
A|---2----|-3-2--|-----2-2--5---|--2-------------|-2-2-2-5------|
E|-----5--|------|-2-2----------|----------------|--------------|

Vente a vivir conmigo amor... que mi sábana está fría...
vente a vivir conmigo amor... porque mi cama está vacía...

G|--------|------|--------------|----------------|----------|
D|-2------|------|------------1-|-2---2/5-4-2-4--|----------|
A|---2----|-3-2--|-----2-2--5---|--2-------------|----------|
E|-----5--|------|-2-2----------|----------------|-7-7/0----|

Vente a vivir conmigo amor... hiriendo mis sentimientos...
sábanas frías sin su amor...


Verso 2


G|----|----|----|----|
D|----|----|----|----|
A|----|----|----|----|
E|-0--|-5--|-7--|-0--|

Y te cuidaré por siempre... y donde quieras...
te amaré como uno quiere... a su bandera...


G|------------------|------------------|
D|---------5-5-4----|------------------|
A|-7-7-7-7-------7--|-------------6-7--|
E|------------------|-5-5-5-5-7-7------|

Yo te quiero compartir... todo todo mi amor...
Te comparto mi cuarto, mi cama, mis besos y todo todo amor...

Con Maná a gozar!!!


G|-----------|------|----------------|
D|---3-4-----|------|------------3---|
A|-4-----4---|---4--|-----4-4--7-----|
E|---------7-|-5----|-4-4------------|

Vente a vivir conmigo amor... ay vamos al caribe mexicano...

G|-------|------|--------|------|
D|-4-----|------|-6------|---3--|
A|---4---|---4--|----4-4-|-7----|
E|-----7-|-5----|--------|------|

Vente a vivir conmigo amor... no le cuente a su mamá sólo a su hermana...

G|-------|-------|---------------|
D|-4-----|-------|-------------3-|
A|---4---|-5-5-4-|-----4-4--7----|
E|-----7-|-------|-4-4-----------|

Vente a vivir conmigo amor... yo te hago el café por la mañana...

G|-------|---------------|-----------|
D|-4-----|---------------|---4-3-----|
A|---4---|--------4-4-4--|--4----5-4-|
E|-----7-|-4-4-7---------|-4---------|

Sábanas frías sin su amor...


G|------------|--------------|---------------|----------|
D|-4----------|------------3-|-4--4/7-6--4-6-|--------3-|
A|---4-7--5-4-|-----5-4--7---|--4------------|-4-4--7---|
E|------------|-4-4----------|---------------|----------|

Vente a vivir conmigo amor... vente a vivir conmigo amor...
Vente a vivir conmigo amor... ven ven ven y apaga este dolor...

G|------|--------|---------------|
D|-4----|--------|------------3--|
A|--4---|-----4--|-----4-4--7----|
E|---7--|-5-5----|-4-4-----------|

Vente a vivir conmigo amor... vente a vivir con Maná...

G|------|-------|------------|--------------|
D|-4----|-------|------------|-----4-3------|
A|--4---|-------|-2-3-4-2----|---4-----5-4--|
E|---7--|-5-5---|---------4--|-4------------|

Sábanas frías sin tu amor...

G|------|--------|---------------|
D|-4----|--------|------------3--|
A|--4---|-----4--|-----4-4--7----|
E|---7--|-5-5----|-4-4-----------|

Sábanas frías sin su amor... sábanas frías...

G|------|--------|---------------|
D|-4----|--------|------------3--|
A|--4---|-5-5-4--|-----4-4--7----|
E|---7--|--------|-4-4-----------|

Qué dolor... qué dolor...

G|---------------|------------|
D|-4--4/7-6-4-6--|---------3--|
A|--4------------|--4-4--7----|
E|---------------|------------|

Sábanas frías sin su amor... arrópame con tu cuerpo...

G|------|-------|------------|--------------|
D|-4----|-------|------------|-----4-3------|
A|--4---|-------|-2-3-4-2----|---4-----5-4--|
E|---7--|-5-5---|---------4--|-4------------|

				Sin ti soy un hombre muerto...

G|------|--------|---------------|
D|-4----|--------|------------3--|
A|--4---|-5-5-4--|-----4-4--7----|
E|---7--|--------|-4-4-----------|

Sábanas frías sin su amor...

G|-----------|---------------|
D|-4---------|------------3--|
A|--4-7-5-4--|-----4-4--7----|
E|-----------|-4-4-----------|
Sin ti morena... sin ti no hay vida...


G|---------------|------------|
D|-4--4/7-6-4-6--|---------3--|
A|--4------------|--4-4--7----|
E|---------------|------------|

Sábanas frías sin su amor...

G|------|-------|------------|--------------|
D|-4----|-------|------------|-----4-3------|
A|--4---|-------|-2-3-4-2----|---4-----5-4--|
E|---7--|-5-5---|---------4--|-4------------|

Dale dale eh... (entra la guitarra)

G|------|--------|---------------|
D|-4----|--------|------------3--|
A|--4---|-5-5-4--|-----4-4--7----|
E|---7--|--------|-4-4-----------|


G|-----------|---------------|
D|-4---------|------------3--|
A|--4-7-5-4--|-----4-4--7----|
E|-----------|-4-4-----------|


G|---------------|------------|
D|-4--4/7-6-4-6--|---------3--|
A|--4------------|--4-4--7----|
E|---------------|------------|


G|------|--------|---------------|
D|-4----|--------|------------3--|
A|--4---|-5-5-4--|-----4-4--7----|
E|---7--|--------|-4-4-----------|


Fade out...                 FIN
Suggest correction
Give kudos to tab author, rate the tab!
1 2 3 4 5
comments
print report bad tab
guest
Wanna post a correction for this tab? Suggest correction