Oops, an error
Loading. Please wait.

Selva Negra tab

version 1
version 1

Whole song

Interactive

by Maná
141 views 1 this week
no commentswrite comment
1 2 3 4 5
3 more votes to show rating
add to favorites
×
Save as Personal and add changes to this tab that will be seen only by you. Learn more ›
×
You can save this tab as Personal to edit and correct it or add notes. All changes will be seen only by you. Learn more »
launch autoscroll
font size
0
reset
how to read this tab
guitar tuner
edit
Autoscroll
slow
fast
+/-
esc
set tempo
stop
HOLA AMIGOS EN EL AÑO 1995 MANÁ CREO LA FUNDACIÓN "selva negra"
UNA FUNDACIÓN QUE FUE CREADA CON EL MOTIVO DE DEFENDER
LA NATURALEZA DEL MUNDO EN DEFENZA DE "planta ballenas tortugas
y entre otras cosas que son de nuestro mundo "ASI QUE LES
DEDICO ESTE TAB PARA TODOS AQUELLOS QUE DEFIENDEN LA MADRE
NATURALEZA OK AHI LES VA:
===========================COMIENZO============================
INTRO:
1.----------------------------|---------------------------|
2.------2--------------2------|------3---------------3----|
3.---------4--------------4---|---------4---------------4-|
4.---4--------4-----4---------|---4--------4------4-------|
5.-2-------------2------------|-2--------------2----------|
6.----------------------------|---------------------------|

1.----------------------------|---------------------2----2|
2.------5--------------5------|------2-----------------2-3|
3.---------4--------------4---|---------4----------------4|
4.---4--------4-----4---------|---4--------4----4--------4|
5.-2-------------2------------|--------------------------2|
6.----------------------------|-5-------------3-----------|
     (X2)
 (Bm)varias veces (A)

(TOQUEN LOS ACORDES CON CEJILLA)
Bm      A        G        F#      D
7       5        3         2      2
7       5        3         2      3
7       6        4         3      2
9       7        5         4      0
9       7        5         4      0
7       7        3         2      0

(MIENTRAS SE TOCAN LOS VERSOS LA OTRA GUITARRA VA ASIENDO ESTOS
PUNTEOS)
1.|--------------------|--------------------|
2.|--------------------|--------------------|
3.|--------------------|--------------------|
4.|-9-9-9-9----9-11-12-|-9-9-9-9----9-11-12-|
5.|---------9-9--------|---------9-9--------|
6.|--------------------|--------------------|

1.|--------------------|--------------------|
2.|--------------------|--------------------|
3.|--------------------|--------------------|
4.|-7-7-7-7----7-9-11--|-7-7-7-7----7-9-11--|
4.|---------7-7--------|---------7-7--------|
6.|--------------------|--------------------|

Bm
Iba de excursión
                       Bm
Perdido en la selva negra
A
En eso se me apareció
                  Bm      G   A
Una afligida hormiga
Bm
Ella me contó

Que alguien le quiere quitar su tierra
A
Y no entiende el porque
                       Bm
Si siempre ha estado ahí
(AHORA EL CORO)

(EL CORO TAMBIEN SE ACOMPAÑA DE ESTA MANERA)
1.|--------------------|--------------------|
2.|--------------------|--------------------|
3.|--------------------|--------------------|
4.|-9-9-9-9----9-11-12-|-9-9-9-9----9-11-12-|
5.|---------9-9--------|---------9-9--------|
6.|--------------------|--------------------|

1.|--------------------|--------------------|
2.|--------------------|--------------------|
3.|--------------------|--------------------|
4.|-7-7-7-7----7-9-11--|-7-7-7-7----7-9-11--|
4.|---------7-7--------|---------7-7--------|
6.|--------------------|--------------------|
CORO:
A                                Bm
Que paso, Que paso en la selva negra
A                            G   F#
Que paso, Que paso en la selva
                     Bm
Les dieron de madrugada
           A
Que será de mi
           G
Que será de ti
         Bm          D      A     Bm
Oye dime que paso en el hormiguero
           A
Que será de mi
           G   Bm
Que será de ti
                   D          A    Bm
Oye dime que paso en la selva negra

 (CON DISTORCIÓN)
1.------9-9-10v-|
2.-9-7----------|
3.--------------|
4.--------------|
5.--------------|
6.--------------|

(CON LOS ACORDES DEL LOS VERSOS)
La hormiga no quiere ver
Que le destruyan su selva negra
Ella siempre defenderá
                 Bm        G    A
Su hogar donde nació

(LA PARTE QUE VIENE A CONTINUACIÓN LA ELECTRICA LO ACOMPAÑA
CON UN RASGUIDO DE ABAJO ASI ARRIBA)

Ejemplo:
1.-7-----|
2.-7-----|
3.-7-----|
4.-------|
5.-------|
6.-------|
Bm
Pícale la panza o te va a pisar
Pica, Pícale la panza te va a morder
Ya no te puedes dejar pisar
Ya no te puedes dejar vencer
A                   Bm
Te quieren pisoterar
(CUANDO TERMINA LA PARTE QUE DICE "te quieren pisotear"
LA OTRA GUITARRA HACE ESTO:
1.|--------------------|--------------------|
2.|--------------------|--------------------|
3.|--------------------|--------------------|
4.|-7-7-7-7----7-9-11--|-7-7-7-7----7-9-11--|
4.|---------7-7--------|---------7-7--------|
6.|--------------------|--------------------|

1.|--------------------|--------------------|
2.|--------------------|--------------------|
3.|--------------------|--------------------|
4.|-9-9-9-9----9-11-12-|-9-9-9-9----9-11-12-|
5.|---------9-9--------|---------9-9--------|
6.|--------------------|--------------------|


 (CORO)
A                                Bm
Que paso, Que paso en la selva negra
1.|--------------------|--------------------|
2.|--------------------|--------------------|
3.|--------------------|--------------------|
4.|-9-9-9-9----9-11-12-|-9-9-9-9----9-11-12-|
5.|---------9-9--------|---------9-9--------|
6.|--------------------|--------------------|
A                            G   F#
Que paso, Que paso en la selva
                     Bm
Les dieron de madrugada
           A
Que será de mi
           G
Que será de ti
         Bm          D      A     Bm
Oye dime que paso en el hormiguero
           A
Que será de mi
           G   Bm
Que será de ti
                   D          A    Bm
Oye dime que paso en la selva negra

1.----------------------------|---------------------------|
2.------2--------------2------|------3---------------3----|
3.---------4--------------4---|---------4---------------4-|
4.---4--------4-----4---------|---4--------4------4-------|
5.-2-------------2------------|-2--------------2----------|
6.----------------------------|---------------------------|

1.----------------------------|---------------------2----2|
2.------5--------------5------|------2-----------------2-3|
3.---------4--------------4---|---------4----------------4|
4.---4--------4-----4---------|---4--------4----4--------4|
5.-2-------------2------------|--------------------------2|
6.----------------------------|-5-------------3-----------|

(REVOTE DE LA BATERIA LUEGO ESTO)
 (CON DISTORCIÓN)
1.------9-9-10v-|
2.-9-7----------|
3.--------------|
4.--------------|
5.--------------|
6.--------------|

(AHORA ESTE PEQUEÑO SOLO)
 (CON DISTORCIÓN)
SOLO:
1.10-12-12-10-12v--10-12-12-10-12v--10-12-12-10-12v-|
2.--------------------------------------------------|
3.--------------------------------------------------|
4.--------------------------------------------------|
5.--------------------------------------------------|
6.--------------------------------------------------|

1.-7-10-7-10v-10-12-10-12-10-12-10-12v-|
2.--------------------------------------|
3.--------------------------------------|
4.--------------------------------------|
5.--------------------------------------|
6.--------------------------------------|


 (CORO)
A                                Bm
Que paso, Que paso en la selva negra
1.|--------------------|--------------------|
2.|--------------------|--------------------|
3.|--------------------|--------------------|
4.|-9-9-9-9----9-11-12-|-9-9-9-9----9-11-12-|
5.|---------9-9--------|---------9-9--------|
6.|--------------------|--------------------|
A                            G   F#
Que paso, Que paso en la selva
                     Bm
Les dieron de madrugada
           A
Que será de mi
           G
Que será de ti
         Bm          D      A     Bm
Oye dime que paso en el hormiguero
           A
Que será de mi
           G   Bm
Que será de ti
                   D          A    Bm
Oye dime que paso en la selva negra

           A
Que será de mi
           G
Que será de ti
         Bm          D      A     Bm
Oye dime que paso en el hormiguero
           A
Que será de mi
           G   Bm
Que será de ti
                   D          A    Bm
Oye dime que paso en la selva negra

(SE TOCA EN Bm HASTA EL FINAL Y LA ELECTRICA VA HACIENDO ESTO)

   Bm
1.-10v--10-12v--------|
2.-------------12-10v-|
3.--------------------|
4.--------------------|
5.--------------------|
6.--------------------|
============================FIN================================
BUENO AMIGOS AHORA YA LA PUEDEN TOCAR COMO SE DEBE POR QUE LAS
OTRAS TRANSCRIPCIONES ESTABAN INCOMPLETAS Y CON ERRORES
ESTA EL "correcta completa y corregida" NO TIENE CASI ERRORES
SI LE ENCUETRAN ME AVISAN OK "practiquen" OK CHAÚ.

 LEANDRO_TRANSCRIPCIONES@  17/01/06  14:44hs
 CHAÚ!!!!!!

            
            
Suggest correction
Creating personal tab
Creating personal tab
You can edit any tab online and save it as your Personal.

You can edit, replace or remove any tab part or add personal notes – all changes will be seen only by you.

Personal tabs can be accessed anytime from any device, even offline.
Learn more »
Give kudos to tab author, rate the tab!
1 2 3 4 5
comments
print report bad tab
guest
Wanna post a correction for this tab? Suggest correction